Guitaretab - guitar tabs
Song name
# A B C D E F G H I J K L M N O P Q R S T U V W X Y Z

Metallica - Human tab

----------------------------------------------------------------------
                           Human - Metallica
----------------------------------------------------------------------
Tabbed by: Nuums aka. Oscar
Email: nuums_41@hotmail.com

Album: S&M

Tuning: Db-standard (Db, Gb, Cb, Fb, Ab, Db) - all strings 1  step down.

Gtr. I (Db, Gb, Cb, Fb, Ab, Db) - 'James Hetfield'
Gtr. II (Db, Gb, Cb, Fb, Ab, Db) - 'Kirk Hammet'

Main riff:
 Gtr.I + II
Db---------------------------------|
Ab---------------------------------|
Fb*--------------------------------|
Cb*----------------------5-----5---|
Gb------------2~----1~---5--2--5---|
Db---0--0--0-----0-------3--0--3---|
                                 4x
Db---------------------------------|
Ab---------------------------------|
Fb--------------------------------*|
Cb--------------------------5--5--*|
Gb------------2~--1~--------5--5---|
Db---0--0--0----------0--2--3--3---|

Verse:
 Gtr. I + II                 2x
Db-----------------------------|
Ab-----------------------------|
Fb*---------------------------*|
Cb*-----------------3-4-3-2---*|
Gb---2--2--2--2-----1-2-1-0----|
Db---0--0--0--0----------------|

Db---------------------------------|
Ab---------------------------------|
Fb---------------------------------|
Cb----------------3-4-3-2-2-3-2----|
Gb---2--2--2--2---1-2-1-0-0-1-0-5--|
Db---0--0--0--0-----------------3--|

 Gtr. I                      2x
Db-----------------------------|
Ab-----------------------------|
Fb*---------------------------*|
Cb*-----------------3-4-3-2---*|
Gb---2--2--2--2-----1-2-1-0----|
Db---0--0--0--0----------------|

Db---------------------------------|
Ab---------------------------------|
Fb---------------------------------|
Cb----------------3-4-3-2-2-3-2----|
Gb---2--2--2--2---1-2-1-0-0-1-0-5--|
Db---0--0--0--0-----------------3--|

 Gtr. II
Db-----------------------------------|
Ab-----------------------------------|
Fb-------------------15--16--15--14--|
Cb--14--14--14--14-------------------|
Gb-----------------------------------|
Db-----------------------------------|
                                     |
Db-----------------------------------|
Ab-----------------------------------|
Fb-------------------15--16--16~-----|
Cb--14--14--14--14-------------------|
Gb-----------------------------------|
Db-----------------------------------|

Db----------------------------------------|
Ab----------------------------------------|
Fb--------------15-16-15-14--14-15-14-12--|
Cb--14-14-14-14---------------------------|
Gb----------------------------------------|
Db----------------------------------------|


Bridge:
 Gtr. I + II
Db---------------------------|
Ab---------------------------|
Fb---------------------------|
Cb--2--5--2--2-----3-4-3-2---|
Gb--2--5--0--2-----1-2-1-0---|
Db--0--3-----0---------------|

Db---------------|
Ab---------------|
Fb---------------|
Cb--2--5--2--4---|
Gb--2--5--0--2---|
Db--0--3---------|

Verse:
 Gtr. I + II                 2x
Db-----------------------------|
Ab-----------------------------|
Fb*---------------------------*|
Cb*-----------------3-4-3-2---*|
Gb---2--2--2--2-----1-2-1-0----|
Db---0--0--0--0----------------|

Db---------------------------------|
Ab---------------------------------|
Fb---------------------------------|
Cb----------------3-4-3-2-2-3-2----|
Gb---2--2--2--2---1-2-1-0-0-1-0-5--|
Db---0--0--0--0-----------------3--|


Main riff / Chorus:
 Gtr. I + II
Db---------------------------------|
Ab---------------------------------|
Fb*--------------------------------|
Cb*----------------------5-----5---|
Gb------------2~----1~---5--2--5---|
Db---0--0--0-----0-------3--0--3---|
                                 2x (Gtr. I)
Db---------------------------------|-----|
Ab---------------------------------|-----|
Fb--------------------------------*|-----| Hold this chord until
Cb--------------------------5--5--*|--2--| the solo is almost done.
Gb------------2~--1~--------5--5---|--2--|
Db---0--0--0----------0--2--3--3---|--0--|

Solo:
 Gtr. II
Db------------------------------------------|
Ab------------------------------------------|
Fb------------------------------------------|
Cb--14-14-14--14-14-14--14-14-14--14-14-14--|
Gb----\---/-----\---/-----\---/-----\---/---|
Db-----(3)-------(3)-------(3)-------(3)----|

Db---------------------------------|
Ab---------------------------------|
Fb---------------------------------|
Cb--14-14-14--14-14-14--14br--14~--|
Gb----\---/-----\---/--------------|
Db-----(3)-------(3)---------------|

Db------------------------------------------|
Ab------------------------------------------|
Fb------------------------------------------|
Cb--14-14-14--14-14-14--14-14-14--14-14-14--|
Gb----\---/-----\---/-----\---/-----\---/---|
Db-----(3)-------(3)-------(3)-------(3)----|

Db------------------------------------------|
Ab------------------------------------------|
Fb------------------------------------------|
Cb--14-14-14--14-14-14--14-14-14--14-14-14--|
Gb----\---/-----\---/-----\---/-------------|
Db-----(3)-------(3)-------(3)--------------|

Db------------------------------------------|
Ab------------------------------------------|
Fb--14b-14--14b-14--14b-14--14b-14--14b-14--|
Cb------------------------------------------|
Gb------------------------------------------|
Db------------------------------------------|
  (Gtr. I chorus starts here)
Db------------------------------|
Ab------------------------------|
Fb--14b-15-14-------------------|
Cb-------------14\--------------|
Gb----------------------1-------|
Db------------------------------|

Chorus:
 Gtr. I (+ II)
Db---------------------------------|
Ab---------------------------------|
Fb---------------------------------|
Cb-----------------------5-----5---|
Gb------------2~----1~---5--2--5---|
Db---0--0--0-----0-------3--0--3---|

Db---------------------------------|
Ab---------------------------------|
Fb---------------------------------|
Cb--------------------------5--5---|
Gb------------2~--1~--------5--5---|
Db---0--0--0----------0--2--3--3---|

Db---------------------------------|
Ab---------------------------------|
Fb---------------------------------|
Cb---------------------------------|
Gb------------2~----2~~~~~~~~~-----|
Db---0--0--0-----0-----------------|
[ Tab from: http://www.guitaretab.com/m/metallica/27206.html ]
Db---------------------------------|
Ab---------------------------------|
Fb---------------------------------|
Cb--------------------------5--5---|
Gb------------2~--1~--------5--5---|
Db---0--0--0----------0--2--3--3---| 



------------


Version 2:


Tuning: Drop Db (Db, Ab, Db, Gb, Bb, Eb)

Gtr. I (Db, Ab, Db, Gb, Bb, Eb) - 'James Hetfield'
Gtr. II (Db, Ab, Db, Gb, Bb, Eb) - 'Kirk Hammet'


Main riff:
 Gtr.I + II
Eb---------------------------------|
Bb---------------------------------|
Gb*--------------------------------|
Db*----------------------3-----3---|
Ab-----------------------3--0--3---|
Db---0--0--0--7~-0--6~---3--0--3---|
                                 4x
Eb---------------------------------|
Bb---------------------------------|
Gb--------------------------------*|
Db--------------------------3--3--*|
Ab--------------------------3--3---|
Db---0--0--0--7~--6~--0--2--3--3---|


Verse:
 Gtr. I + II                 2x
Eb-----------------------------|
Bb-----------------------------|
Gb*---------------------------*|
Cb*---------------------------*|
Ab---0--0--0--0---6--7--6--5---|
Db---0--0--0--0---6--7--6--5---|

Eb----------------------------------|
Bb----------------------------------|
Gb----------------------------------|
Db----------------------------------|
Ab---0--0--0--0---6-7-6-5--5-6-5-3--|
Db---0--0--0--0---6-7-6-5--5-6-5-3--|

 Gtr. I                      2x
Eb-----------------------------|
Bb-----------------------------|
Gb*---------------------------*|
Cb*---------------------------*|
Ab---0--0--0--0---6--7--6--5---|
Db---0--0--0--0---6--7--6--5---|

Eb----------------------------------|
Bb----------------------------------|
Gb----------------------------------|
Db----------------------------------|
Ab---0--0--0--0---6-7-6-5--5-6-5-3--|
Db---0--0--0--0---6-7-6-5--5-6-5-3--|

 Gtr. II
Eb-----------------------------------|
Bb-----------------------------------|
Gb-------------------13--14--13--12--|
Db--12--12--12--12-------------------|
Ab-----------------------------------|
Db-----------------------------------|
                                     |
Eb-----------------------------------|
Bb-----------------------------------|
Gb-------------------13--14--14~-----|
Db--12--12--12--12-------------------|
Ab-----------------------------------|
Db-----------------------------------|

Eb----------------------------------------|
Bb----------------------------------------|
Gb--------------13-14-13-12--12-13-12-10--|
Db--12-12-12-12---------------------------|
Ab----------------------------------------|
Db----------------------------------------|


Bridge:
 Gtr. I + II
Eb---------------------------|
Bb---------------------------|
Gb---------------------------|
Db--0--3--5--0---------------|
Ab--0--3--5--0---6--7--6--5--|
Db--0--3--5--0---6--7--6--5--|

Eb---------------|
Bb---------------|
Gb---------------|
Db--0--3--5--7---|
Ab--0--3--5--7---|
Db--0--3--5--7---|


Verse:
 Gtr. I + II                 2x
Eb-----------------------------|
Bb-----------------------------|
Gb*---------------------------*|
Cb*---------------------------*|
Ab---0--0--0--0---6--7--6--5---|
Db---0--0--0--0---6--7--6--5---|

Eb----------------------------------|
Bb----------------------------------|
Gb----------------------------------|
Db----------------------------------|
Ab---0--0--0--0---6-7-6-5--5-6-5-3--|
Db---0--0--0--0---6-7-6-5--5-6-5-3--|


Main riff:
 Gtr.I + II
Eb---------------------------------|
Bb---------------------------------|
Gb*--------------------------------|
Db*----------------------3-----3---|
Ab-----------------------3--0--3---|
Db---0--0--0--7~-0--6~---3--0--3---|
                                 2x (Gtr. I)
Eb---------------------------------|-----|
Bb---------------------------------|-----|
Gb--------------------------------*|-----| Hold this chord until
Db--------------------------3--3--*|--0--| the solo is almost done.
Ab--------------------------3--3---|--0--|
Db---0--0--0--7~--6~--0--2--3--3---|--0--|


Solo:
 Gtr. II
Eb------------------------------------------|
Bb------------------------------------------|
Gb------------------------------------------|
Db--12-12-12--12-12-12--12-12-12--12-12-12--|
Ab----\---/-----\---/-----\---/-----\---/---|
Db-----(3)-------(3)-------(3)-------(3)----|

Eb---------------------------------|
Bb---------------------------------|
Gb---------------------------------|
Db--12-12-12--12-12-12--12br--12~--|
Ab----\---/-----\---/--------------|
Db-----(3)-------(3)---------------|

Eb------------------------------------------|
Bb------------------------------------------|
Gb------------------------------------------|
Db--12-12-12--12-12-12--12-12-12--12-12-12--|
Ab----\---/-----\---/-----\---/-----\---/---|
Db-----(3)-------(3)-------(3)-------(3)----|

Eb------------------------------------------|
Bb------------------------------------------|
Gb------------------------------------------|
Db--12-12-12--12-12-12--12-12-12--12-12-12--|
Ab----\---/-----\---/-----\---/-------------|
Db-----(3)-------(3)-------(3)--------------|

Eb------------------------------------------|
Bb------------------------------------------|
Gb--12b-12--12b-12--12b-12--12b-12--12b-12--|
Db------------------------------------------|
Ab------------------------------------------|
Db------------------------------------------|
  (Gtr. I chorus starts here)
Eb------------------------------|
Bb------------------------------|
Gb--12b-13-12-------------------|
Db-------------12\--------------|
Ab------------------------------|
Db----------------------6~------|


Main riff:
 Gtr.I + II
Eb---------------------------------|
Bb---------------------------------|
Gb---------------------------------|
Db-----------------------3-----3---|
Ab-----------------------3--0--3---|
Db---0--0--0--7~-0--6~---3--0--3---|

Eb---------------------------------|
Bb---------------------------------|
Gb---------------------------------|
Db--------------------------3--3---|
Ab--------------------------3--3---|
Db---0--0--0--7~--6~--0--2--3--3---|

Eb---------------------------------|
Bb---------------------------------|
Gb---------------------------------|
Db---------------------------------|
Ab---------------------------------|
Db---0--0--0--7~-0--6~~~~~~~~~-----|

Eb---------------------------------|
Bb---------------------------------|
Gb---------------------------------|
Db--------------------------3--3---|
Ab--------------------------3--3---|
Db---0--0--0--7~--6~--0--2--3--3---|


------------


Finish!..

Tab Key:

 /    = Slide up
 \    = Slide down
 ~    = Vibrato
 b    = Bend
 fb   = Full bend
 br   = Bend/Release
 (3)  = Triad
--------
Related for Human tab