Song name
# A B C D E F G H I J K L M N O P Q R S T U V W X Y Z

Metallica - The Thorn Within tab

Metallica    The Thorn Within
AAAAAAAAAAAAAAAAAAAAAAAAAAAAAAAAAAAAAAAAAAAAAAAAAAAAAAAAAAAAAAAAAAAAAAAAAAAAAAA
Intro:          Tune Guitars Down 1/2 step
|---------------------|--------------------------------------------------|
|.-------------------.|--------------------------------------------------|
|---------------------|--7--8--7--------7--8--7--5---------7--8--7--5----|
|---2--5-----5--7--7--|-----------------------------------------------7--|
|.--2--5-----5--7--7-.|--------------------------------------------------|
|---0--3--0--3--5--5--|--------------------------------------------------|

Chorus:
|----------------------------------------------|
|.--------------------------------------------.|
|----------------------------------------------|
|-------------------------2-2-2-2-2-2--5--5----|
|.----4---3---2---1---0---2-2-2-2-2-2--5--5---.|
|---3---3---3---3---3-----0-0-0-0-0-0--3--3----|

Tap to rate this tab
# A B C D E F G H I J K L M N O P Q R S T U V W X Y Z