Song name
# A B C D E F G H I J K L M N O P Q R S T U V W X Y Z

Metallica - The Unforgiven tab

                    METALLICA
                The Unforgiven Solo


Clean Part:
----------------------------|-0-0-0-0-0-0-0s0-------|
----------------------------|-0-1-3-5-3-1-1s3-------|
---4-5-7-5-4h5p4---4--------|-----------------------|
-7---------------7---5-7----|-----------------------|
----------------------------|-----------------------|
----------------------------|-----------------------|

----------------------------|-----------------------|
-8s10s8--7---3-----3--------|-----------------------|
-7s-9s7--7----4--4--4-------|-----------5-----------|
---------------5-----5------|---------5---5-5s7-----|
----------------------------|-3s5-6-7---------------|
----------------------------|-----------------------|

-----------------------|-7---10----12-----14-----15---17-|
-8-7h8p7---7-8-10------|--8-8--8-10--10-12--12-14--14----|
---------9-------------|---------------------------------|
-----------------------|---------------------------------|
-----------------------|---------------------------------|
-----------------------|---------------------------------|


Distortion Part:
--------------------------------------------------------|
-7^-7^--------------------------------------------------|
-7^-7^-5------------------------5-5-7-7/-9-7-9/-11-9-11-|
--------7-7^-7-5--------------7-------------------------|
----------------7-5\3-5-----3^--------------------------|
-----------------------5-3-5----------------------------|

--------------------------------------------22^-22^22-17-17-|
---------15--15--13-----15---22~~~~-22-17-17----------------|
14-12-14---14--14--14-14--14--------------------------------|
------------------------------------------------------------|
------------------------------------------------------------|
------------------------------------------------------------|

22-17h20p17---17~\-7-9-7--7-----------------------------|
------------20----------10-10-8-7-----------------------|
---------------------------------9-9-7\5-5-7-5-4-5-4-2~-|
--------------------------------------------------------|
--------------------------------------------------------|
--------------------------------------------------------|

--12------------------17-17~-17-19-20-19-17-19-17h19p17-|
----13---x7---------------------------------------------|
/-----14----19^-19^-17----------------------------------|
--------------------------------------------------------|
--------------------------------------------------------|
--------------------------------------------------------|

-17------------------------------------------------------------|
---19-17--19-17------------------------20-18h20p18/17-18-17~---|
--------20-----19^-17-19^-17-19^-19^-17------------------------|
---------------------------------------------------------------|
---------------------------------------------------------------|
---------------------------------------------------------------|
Tap to rate this tab
# A B C D E F G H I J K L M N O P Q R S T U V W X Y Z