Song name
# A B C D E F G H I J K L M N O P Q R S T U V W X Y Z

Metallica - Power Rangers tab

E|------------------------|----------------|------------------|------------------------|
B|--------------------8---|-8--------------|------10----10----|-10----12--12--10--10---|
G|-9----9----7---9--------|-----9---9------|-9----10----10----|-10----12--12--10--10---|
D|------------------------|----------------|------------------|------------------------|
A|------------------------|----------------|------------------|------------------------|
E|------------------------|----------------|------------------|------------------------|


E|------------------------|-----------------------|------------------|------------------------|
B|--------------------8---|-8---------------------|------10----10----|-10----12--12--10--10---|
G|-9----9----7---9--------|-----9---9---9---9-----|-9----10----10----|-10----12--12--10--10---|
D|------------------------|-----------------------|------------------|------------------------|
A|------------------------|-----------------------|------------------|------------------------|
E|------------------------|-----------------------|------------------|------------------------|


E|-----------------------10--|-10---10--10--10--10--10---|----------8---10--8-----------|
B|------------------10---10--|-10---10--10--10--10--10---|------10--------------10------|
G|-5---7---7-----------------|---------------------------|------------------------------|
D|---------------------------|---------------------------|------------------------------|
A|---------------------------|---------------------------|------------------------------|
E|---------------------------|---------------------------|------------------------------|


E|---------------------------|------------------------|-----------------------|-13----11--11------|
B|-10--8-------8-------------|--------------------7---|-7---------------------|----------------13-|
G|---------10------12---10---|-9----9----7---9----7---|-7---9---9---9---9-----|-------------------|
D|---------------------------|-9----9----7---9--------|-----9-----------------|-------------------|
A|---------------------------|-7----------------------|-------------7---------|-------------------|
E|---------------------------|------------------------|-----------------------|-------------------|


E|---------------------------|-12---12---10--12---15--|-----12--12--12--12----|-18----17--17---15-|
B|-13--11--11----------------|-12---12---10--12---15--|-8---12--12--12--12----|-------------------|
G|--------------13---13--10--|------------------------|-----------------------|-------------------|
D|---------------------------|------------------------|-----------------------|-------------------|
A|---------------------------|------------------------|-----------------------|-------------------|
E|---------------------------|------------------------|-----------------------|-------------------|


E|-15------------------------|---------10---------------------|
B|-----17--17---15---15------|-10--13------13--10--13--10-----|
G|-----------------------16--|-----------------------------12-|
D|---------------------------|--------------------------------|
A|---------------------------|--------------------------------|
E|---------------------------|--------------------------------|

-------------|-----------------------------------|
-10----------|-----------------------------------|
-----12--10--|-13--12--10--13--12--10------------|
-------------|-------------------------12--------|
-------------|-----------------------------------|
-------------|-----------------------------------|


E|---------10----------10--13--10------10--13--|-10-------------------------------12--|
B|-10--13------13--10--------------13----------|-----13--10--13--10--13--10-----------|
G|---------------------------------------------|--------------------------------------|
D|---------------------------------------------|--------------------------------------|
A|---------------------------------------------|--------------------------------------|
E|---------------------------------------------|--------------------------------------|


E|-12--12--------------------|-----------------------|-12---10--------------------|
B|-15--15--15---12--12-------|---------------14--12--|-12---10---10--12--10-------|
G|------------------12-------|-----------------------|-----------------------12---|
D|-----------------------14--|-14----12--14----------|----------------------------|
A|---------------------------|-----------------------|----------------------------|
E|---------------------------|-----------------------|----------------------------|


E|---------------------|--------|--------|--------|--------|
B|---------------------|--------|--------|--------|--------|
G|-9----7----9----7----|-5------|-7------|-4------|--------|
D|-9----7----9----7----|-5------|-7------|-4------|--------|
A|---------------------|-3------|-5------|-2------|--------|
E|---------------------|--------|--------|--------|--------|


Tap to rate this tab
# A B C D E F G H I J K L M N O P Q R S T U V W X Y Z