Song name
# A B C D E F G H I J K L M N O P Q R S T U V W X Y Z

Metallica - Welcome Home Sanitarium tab

Submitted by: josegonzo
Tuning: Standard (EADGBe)
Intro:
           (Natural Harmonics)
e----------12-----|
B-------------12--|
G-----------------|
D-----------------|
A-----------------|
E--0--------------|

e--5-3h5p3----------12-----|
B----------------------12--|
G--------------------------|
D--------------------------|
A--------------------------|
E-----------0--------------|

e-2-2-3-------12------------12-----------12------------12-------|
B---0-0----------12------------12-----------12------------12----|
G------------------------------------------------------------12-|
D---------------------------------------------------------------|
A---------------------------------------------------------------|
E----------------------0-------------0-------------0------------|

Verse Riff:
e-----------------------------------------------------|
B-----------------------------------------------------|
G--------0--------0--------0--------------------------|
D------4--------5--------7---------0------0------0----|
A----2--------3--------5---------4------2-------------|
E--0--------0--------0---------5------3------2/5------|
Tap to rate this tab
 
# A B C D E F G H I J K L M N O P Q R S T U V W X Y Z