Song name
# A B C D E F G H I J K L M N O P Q R S T U V W X Y Z

Metallica - Tuesdays Gone chords

Highlighted       Show chord diagrams
                   Thuesday's gone
                        Metallica


A               E                   F#M    D                         
Train roll on, on down the line
A                 E                     F#M          D
Won't you, please take me far, far away
A                 E                     F#M             D
Now, I feel the wind blow, outside my door
A                E                   F#M   D
I'm leaving my woman at home
D   
My baby's gone
A               G                   D 
Tuesday's gone with the wind
A                G                   D   
My baby's gone with the wind


A                 E                      F#M     D
And i don't know where I'm going
A            E           F#M         D
I just want to be left alone
A             E                  F#M         D 
When this train ends, i'll try again
A                E                 F#M      D
I'm leaving my woman at home
D 
My baby's gone
A            G                  D
Tuesday's gone with the wind
A             G                  D
Tuesday's gone with the wind
A              G                    D    
Tuesday's gone with the wind
A              G                     D  
And My baby's gone with the wind
A           E                 F#M      D
Train roll on, Tuesday's gone


A            G                  D
Tuesday's gone with the wind
A           G                   D         
Tuesday's gone with the wind
A             G                       D 
Tuesday's gone, long gone with the wind
A             G                  D
My baby's gone with the wind
A             E                        F#M              D


Train roll on, many miles from my home
A            E                 F#M     D
See, i'm riding my blues away
A          E                 F#M               D
Tuesday, you see, she had to be free
A                   E                F#M              D
But somehow, I've got you to carry on
D
My Baby's gone
A            G                  D
Tuesday's gone with the wind
A              G                     D  
Tuesday's gone, long gone with the wind
A               G                    D 
Tuesday's gone with the wind
A                 G                  D
My baby's gone with the wind
A               G
Train roll on
                 D
Train roll on
A               G
Ride on train
                  D
Ride on train
Ride on train


A                G
Train roll on
               D
(train roll on)
A                   G
Train, it rolls on
                D
Train roll on
A       G             D      
Oh, I can change
A         G              D
Oh, I can change
A          G             D
Oh, I can change
A        G             D
Oh, I can change
A                 G
Train roll on
                    D
Train roll on
A                  G
Ride on train
                   D
Oh, I can change
A
Train roll on
G
Ride on Train
D
Lord I can change
A      G           D
Oh, I can change
D                      A
Roll on train 



Solo/Intro
         full      full       half                     
1b) lead ^V         ^V         ^V  
eb-----------------------------------------------------------------
Bb------14--14-12~~12--12------------------------------------------
Gb------------------------14--14-11~~------------------9h11h12-14~~
Db--14~~---------------------------------------9h11h12-------------
Ab-------------------------------------9h10h12---------------------
Eb-----------------------------------------------------------------

1c) lead continued
eb-------^V-----^V-----
Bb--14--14-12~~12--10~~
Gb---------------------
Db---------------------
Ab---------------------
Eb---------------------
intro


2a) lead           ^  ^     ^  ^     ^ ^  ^ 
eb-----------------------------------------------------
Bb--5-3--5-3--5-3--------------------------------------
Gb-----------------4--4--2~~4--4-----4-4--4----2-------
Db--------------------------------2~~-------4~~---0---0
Ab--------------------------------------------------2--
Eb-----------------------------------------------------

2b) lead continued ^   
eb-------------------------------------------------------------
Bb--------------------------5/7--5--3--5-3--5-3--5-3--2-3-5-2--
Gb----------2-4-4--4--2--4--4/6--4--2-------------------------2
Db------2-4----------------------------------------------------
Ab--2-4--------------------------------------------------------
Eb-------------------------------------------------------------
Tap to rate this tab
 
# A B C D E F G H I J K L M N O P Q R S T U V W X Y Z