Song name
# A B C D E F G H I J K L M N O P Q R S T U V W X Y Z

Metallica - Anesthesia Pulling Teeth tab

I've not got the whole song tabbed unfortunately and I'm not quite sure I've got this
arranged well enough but this is sorta close to what it sounds like on the bass. This guy
here>> http://www.youtube.com/watch?v=dsYM__6J0y8 played this on the guitar and it 
inspired me to tab this out..

So here goes! My first tab! xD



e---------------------------------------------------------|
B---------------------------------------------------------|
G---------------------------------------------------------|
D----------7--------7----------7--------7-----------7-----|
A-------8--------8----------8---------8----------8--------|
E--/10--------10--------10---------10--------10-----------|


e---------------------------------------------------------|
B---------------------------------------------------------|
G---------------------------------------------------------|
D---------5-----5-------5---------5-----------5-----------|
A-------7-----7-------7--------7----------7---------------|
E--10\8-----8-------8--------8--------8-------------------|



e---------------------------------------------------------|
B---------------------------------------------------------|
G---------------------------------------------------------|
D----------7--------7----------7--------7-----------7-----|
A-------8--------8----------8---------8----------8--------|
E--/10--------10--------10---------10--------10-----------|


e---------------------------------------------------------|
B---------------------------------------------------------|
G---------------------------------------------------------|
D---------5-----5-------5---------5-----------5-----------|
A-------7-----7-------7--------7----------7---------------|
E--10\8-----8-------8--------8--------8-------------------|


e---------------------------------------------------------|
B---------------------------------------------------------|
G---------------------------------------------------------|
D----------7--------7----------7--------7-----------7-----|
A-------8--------8----------8---------8----------8--------|
E---10--------10--------10---------10--------10-----------|

Then at 0:23 he goes ->

e---------------------------------------------------------|
B---------------------------------------------------------|
G---------------------------------------------------------|
D-------------9--------9----------9----------9----------9-|
A---------10--------10--------10---------10---------10----|
E--10/12---------12-------12----------12---------12-------|

e----------------------------------------------------------|
B----------------------------------------------------------|
G----------------------------------------------------------|
D-----------10-----------10---------10----------9--------9-|
A--------12----------12----------------------10-------10---|
E--12/13---------13----------13---------12---------12------|


e---------------------------------------------------------|
B---------------------------------------------------------|
G---------------------------------------------------------|
D-----9---------------------------------------------------|
A-------------7~~---5~~~----------------------------------|
E-12----------5~~---3~~~----------------------------------|


Then at 0:35 ->

e----------------------------------------------------------|
B------------------------------0---------------------------|
G------------------------------0---------------------------|
D-----7------3-----2-----------0---------------------------|
A--5-----5------5--------3---------------------------------|
E----------------------------------------------------------|

e---------------------------------------------------------|
B---------------------------------------------------------|
G------------------------------0--------------------------|
D-----7------3-----2-----------0--------------------------|
A--5-----5------5--------3--------------------------------|
E---------------------------------------------------------|


When you pluck those open strings, make sure you don't make them ring out long.
Also add your own effect or something when those open strings are played.. makes it
sound more awesome xD
or replace them with any other note you find better..


....And that's all I've got for now.. I'll tab it later or whenever I get the next parts again..
If any of you guys have some suggestions or wanna add something lemme know.. I'll try
and figure out the rest later on..

Keep Rock Alive! \m/
Tap to rate this tab
 
# A B C D E F G H I J K L M N O P Q R S T U V W X Y Z