Song name
# A B C D E F G H I J K L M N O P Q R S T U V W X Y Z

Metallica - Dirty Window tab

Dirty Window by Metallica

This is partly

Dropped C# Tuning

C# G# C# F# A# D#

                       
D#|----------------------|
A#|----------------------|
F#|----------------------|
C#|----------------------| x 6
G#|----------------------|
C#|-X-X-X-X--X--X--X-X--X|


                          
D#|-------------------------|
A#|-------------------------|
F#|-------------------------|
C#|-------------------------| x 5
G#|-------------------5-----| 
C#|-0-3-5-0-3-5-0-3-5---6-5-|


D#|----------------------|
A#|----------------------|
F#|----------------------|
C#|----------------------| x 1
G#|-3----0-3-0--3--/5---5|
C#|-3----0-3-0--3--/5---5|

D#|-------------------------|
A#|-------------------------|
F#|-------------------------|
C#|-------------------------| x 4 
G#|-------------------5-----|
C#|-0-3-5-0-3-5-0-3-5---6-5-|

D#|----------------------|
A#|----------------------|
F#|----------------------|
C#|----------------------| x 1
G#|-3----0-3-0--3--/5---5|
C#|-3----0-3-0--3--/5---5|

D#|-------------------------|
A#|-------------------------|
F#|-------------------------|
C#|-------------------------| x 2
G#|-------------------5-----|
C#|-0-3-5-0-3-5-0-3-5---6-5-|


D#|-------------------------|
A#|-------------------------|
F#|-------------------------|
C#|-------------------------| x 3
G#|-------------------------|
C#|-0-3-5-0-------0-3-5-6~~~|
-
D#|-------------------------------------------------|
A#|-------------------------------------------------|
F#|-------------------------------------------------|
C#|-------------------------------------------------| x 1
G#|-3-6-8-3-------3-6-8-------3-6-8-3---------------|
C#|-3-6-8-3-------3-6-8-9~~---3-6-8-3---0-3-5-0-3-5-|

D#|-------------------------|
A#|-------------------------|
F#|-------------------------|
C#|-------------------------| x 2
G#|-------------------5-----|
C#|-0-3-5-0-3-5-0-3-5---6-5-|

             D#|--------------------------------------------------------------|
             A#|--------------------------------------------------------------|
             F#|--------------------------------------------------------------|
Palm-muted   C#|---------------12---10----------------------------------------| x 2
             G#|-12-------12---12---10---12/13-\12----------------------5-----|
             C#|----------15--------------------------0-3-5-0-3-5-0-3-5---6-5-|
  


D#|---------|              D#|--------------|
A#|---------|              A#|--------------|
F#|---------|              F#|--------------|
C#|---------| x 2          C#|--------------| x1
G#|-0-3-5-0-|              G#|--------5-----|
C#|-0-3-5-0-|              C#|--0-3-5---6-5-|


D#|---------|              D#|--------------|
A#|---------|              A#|--------------|
F#|---------|              F#|--------------|
C#|---------| x 3          C#|--------------| x 2
G#|-0-3-5-0-|              G#|--------5-----|
C#|-0-3-5-0-|              C#|--0-3-5---6-5-|

D#|----------------------|
A#|----------------------|
F#|----------------------|
C#|----------------------| x 2
G#|----------------------|
C#|-0-0-0-0--0--0--0-0--0|

D#|-------------------------|
A#|-------------------------|
F#|-------------------------|
C#|-------------------------| x 4 
G#|-------------------5-----|
C#|-0-3-5-0-3-5-0-3-5---6-5-|

D#|----------------------|
A#|----------------------|
F#|----------------------|
C#|----------------------| x 1
G#|-3----0-3-0--3--/5---5|
C#|-3----0-3-0--3--/5---5|


D#|-------------------------|
A#|-------------------------|
F#|-------------------------|
C#|-------------------------| x 2
G#|-------------------5-----|
C#|-0-3-5-0-3-5-0-3-5---6-5-|


D#|-------------------------|
A#|-------------------------|
F#|-------------------------|
C#|-------------------------| x 3
G#|-------------------------|
C#|-0-3-5-0-------0-3-5-6~~~|
-
D#|-------------------------------------------------|
A#|-------------------------------------------------|
F#|-------------------------------------------------|
C#|-------------------------------------------------| x 1
G#|-3-6-8-3-------3-6-8-------3-6-8-3---------------|
C#|-3-6-8-3-------3-6-8-9~~---3-6-8-3---0-3-5-0-3-5-|

D#|-------------------------|
A#|-------------------------|
F#|-------------------------|
C#|-------------------------| x 2
G#|-------------------5-----|
C#|-0-3-5-0-3-5-0-3-5---6-5-|

             D#|--------------------------------------------------------------|
             A#|--------------------------------------------------------------|
             F#|--------------------------------------------------------------|
Palm-muted   C#|---------------12---10----------------------------------------| x 2
             G#|-12-------12---12---10---12/13-\12----------------------5-----|
             C#|----------15--------------------------0-3-5-0-3-5-0-3-5---6-5-|



D#|---------|              D#|--------------|
A#|---------|              A#|--------------|
F#|---------|              F#|--------------|
C#|---------| x 2          C#|--------------| x1
G#|-0-3-5-0-|              G#|--------5-----|
C#|-0-3-5-0-|              C#|--0-3-5---6-5-|


D#|---------|              D#|--------------|
A#|---------|              A#|--------------|
F#|---------|              F#|--------------|
C#|---------| x 3          C#|--------------| x 2
G#|-0-3-5-0-|              G#|--------5-----|
C#|-0-3-5-0-|              C#|--0-3-5---6-5-|


D#|----------------------|
A#|----------------------|
F#|----------------------|
C#|----------------------| x 18
G#|----------------------|
C#|-0-0-0-0--0--0--0-0--0|

D#|-------------------------|
A#|-------------------------|
F#|-------------------------|
C#|-------------------------| x 2
G#|-------------------5-----|
C#|-0-3-5-0-3-5-0-3-5---6-5-|
           
             D#|--------------------------------------------------------------|
             A#|--------------------------------------------------------------|
             F#|--------------------------------------------------------------|
Palm-muted   C#|---------------12---10----------------------------------------| x 2
             G#|-12-------12---12---10---12/13-\12----------------------5-----|
             C#|----------15--------------------------0-3-5-0-3-5-0-3-5---6-5-|




D#|---------|              D#|--------------|
A#|---------|              A#|--------------|
F#|---------|              F#|--------------|
C#|---------| x 2          C#|--------------| x1
G#|-0-3-5-0-|              G#|--------5-----|
C#|-0-3-5-0-|              C#|--0-3-5---6-5-|


D#|---------|              D#|--------------|
A#|---------|              A#|--------------|
F#|---------|              F#|--------------|
C#|---------| x 3          C#|--------------| x 2
G#|-0-3-5-0-|              G#|--------5-----|
C#|-0-3-5-0-|              C#|--0-3-5---6-5-|



D#|----------------------|
A#|----------------------|
F#|----------------------|
C#|----------------------| x 24
G#|----------------------|
C#|-0-0-0-0--0--0--0-0--0|
Tap to rate this tab
 
# A B C D E F G H I J K L M N O P Q R S T U V W X Y Z