Song name
# A B C D E F G H I J K L M N O P Q R S T U V W X Y Z

Metallica - No Remorse tab

                                       No Remorse
                       

Tabbed by alexsmith1997
                      

Intro Riff (rythym Play behind Solo)
E|---------------------------------------------------------------------|
B|---------------------------------------------------------------------|
G|---------------------------------------------------------------------|
D|-----------------2----------------4----------------2----------------4|
A|--4--4-4-4-4-4-4-0-4-4-4-4-4-4-4--2--4-4-4-4-4-4-4-0-4-4-4-4-4-4-4--2|
E|0-2--2-2-0-2-2-4---2-2-2-0-2-2-4-----2-2-0-2-2-4---2-2-2-0-2-2-4-----|



Intro Solo
e|14----14----14----14----14----14----14----14----14----14----14----|
B|17b19-17b19-17b19-17b19-17b19-17b19-17b19-17b19-17b19-17b19-17b19-|
G|------------------------------------------------------------------|
D|------------------------------------------------------------------|
A|------------------------------------------------------------------|
E|------------------------------------------------------------------|


e|14-17p14----14-17p14-17p14----14-17p14-17p14----14-17p14-17p14----|
B|---------17----------------17----------------17----------------17-|
G|------------------------------------------------------------------|
D|------------------------------------------------------------------|
A|------------------------------------------------------------------|
E|------------------------------------------------------------------|


e|14-17p14-17p14----14---17p14h17-17b19------------17b19~~~~~-------|
B|---------------17-------------------------------------------------|
G|------------------------------------------------------------------|
D|------------------------------------------------------------------|
A|------------------------------------------------------------------|
E|------------------------------------------------------------------|


e|17---14-17p14----14-17p14-----------------------------------------|
B|--------------17----------17-14-17p14-----------------------------|
G|----------------------------------------16---14--------14---16b18-|
D|--------------------------------------------------16--------------|
A|------------------------------------------------------------------|
E|------------------------------------------------------------------|


e|14----------------------------------------------------------------|
B|14---17p14----14-17p14----14-17p14----14-17p14--------------------|
G|-----------16----------16----------16----------16---14\-----------|
D|------------------------------------------------------------------|
A|------------------------------------------------------------------|
E|------------------------------------------------------------------|


e|------------------------------------------------------------------|
B|------2-5p2---2-5p2-5p2-5p2---5---2-------------------------------|
G|4--b6-------4-------------------------4---2-------2---4---4b6r4-2-|
D|----------------------------------------------4-------------------|
A|------------------------------------------------------------------|
E|------------------------------------------------------------------|


e|----------------------------------------------------------|
B|----------------------------------------------------------|
G|------2---4p2---------------------------------------------|
D|--4-----------4---2-------------------------------2-----2-|
A|----------------------4---2---0-------0---2---4-----------|
E|----------------------------------2-----------------------|


e|------------------------------------------------5p2h5p2h5p2h5p2-|
B|--------------------------------5p2h5p2h5p2h5p2-----------------|
G|----------------4p2h4p2h4p2h4p2---------------------------------|
D|4p2h4p2h4p2h4p2-------------------------------------------------|
A|----------------------------------------------------------------|
E|----------------------------------------------------------------|


e|-5p2---------------------------------------------|
B|-------5---2-------------------------------------|
G|---------------4---2-------2---4---4b6r4---2-----|
D|-----------------------4-----------------------4-|
A|-------------------------------------------------|
E|-------------------------------------------------|


e|----14-17p14----14-17p14-20p14-17p14----14-17p14-20p14-17p14----|
B|/17----------17----------------------17----------------------17-|
G|----------------------------------------------------------------|
D|----------------------------------------------------------------|
A|----------------------------------------------------------------|
E|----------------------------------------------------------------|


e|14-17p14-20p14-17p14----14-17p14----14-17p14--------------------|
B|---------------------17----------17------------17---14----------|
G|---------------------------------------------------------16---14|
D|----------------------------------------------------------------|
A|----------------------------------------------------------------|
E|----------------------------------------------------------------|


e|-----------------------------------------------|
B|-----------------------------------------------|
G|--------14---16b18---16b18---16b18~~~~~-----14-|
D|---16------------------------------------------|
A|-----------------------------------------------|
E|-----------------------------------------------|


e|--------------------------------17b19---17b19---17b19~~~~~---17-|
B|17b19--------17b19~~~-----17-14---------------------------------|
G|----------------------------------------------------------------|
D|----------------------------------------------------------------|
A|----------------------------------------------------------------|
E|----------------------------------------------------------------|


e|14-17p14--------------------------------------------------------|
B|---------17--19p17-14--17p14------------------------------------|
G|-----------------------------16--18p16-14--16p14----------------|
D|-------------------------------------------------16-14----14-16-|
A|-------------------------------------------------------16-------|
E|----------------------------------------------------------------|


e|---------------|
B|---------------|
G|---------------|
D|14-------------|
A|---16-14\12----|
E|------------14\|





Pre-chorus Riff 1

E|-------------------------------------------|
B|-------------------------------------------|
G|-------------------------------------------|
D|---0-2----0-2----5------0-2----0-2----2-3-4|
A|-----------------3--------------------0-1-2|
E|0-0---0-0-----------0-0---0-0--------------|

Repeat Pre-Chorus Riff 1 Until the Chorus


War Without End.......

e|-------------------------------------------------|-----------|
B|-------------------------------------------------|-----------|
G|--------------------------------------------(r)--|-----------|
D|--------------5---------5---------5--------------|-----------|
A|---1----------5---------5---------5------1-------|-----------|
E|---3--0-------------0--------0-----------3-----3-|---0-------|



  Repeat Twice
e|---------------------------------------------------------| 
B|---------------------------------------------------------|      
G|---------------------------------------------------------|
D|---------------------------------------------------------|
A|-------10------9--------7------------5-----7h5-----------|
E|0-0-0-0-0-0-0-0-0-0-0-0-0-0-0-0-0-0-0-0-0-0-0-0-0--------|


Repeat Twice To Prechorus riff 1

e|-------------------------------------------------------|
B|-------------------------------------------------------|
G|-------------------------------------------------------|
D|-----------9-----------7-------------5------------7----|
A|-----------7-----------5-------------3------------5----|
E|-0-2-3-2-0---0-2-3-2-0---0-2-3-2-0------0-2-3-2-0------|

Repeat 

E|-------------------------------------------|
B|-------------------------------------------|
G|-------------------------------------------|
D|---0-2----0-2----5------0-2----0-2----2-3-4|
A|-----------------3--------------------0-1-2|
E|0-0---0-0-----------0-0---0-0--------------|

e|------------------------------------------------------|
B|15----------15----------15----15----15----15----------|
G|---16----------16-------14b16-14b16-14b16-14b16~~~~~--|
D|------------------------------------------------------|
A|------------------------------------------------------|
E|------------------------------------------------------|


e|12--------------------------------------------------|
B|12----------------------------15--------------------|
G|-----14---12--------12---14---14b16r14--------12~~~-|
D|---------------14------------------------14---------|
A|----------------------------------------------------|
E|----------------------------------------------------|


e|15b17-------15b17-------15b17-15b17-15-15~~~~~--15-|
B|---------------------------------------------------|
G|---------------------------------------------------|
D|---------------------------------------------------|
A|---------------------------------------------------|
E|---------------------------------------------------|


e|12-15p12-----------------------------------------------------|
B|---------15-12----12-15p12-----------------------------------|
G|---------------14b---------14-12----12-14p12-----------------|
D|---------------------------------14----------14-12-----------|
A|---------------------------------------------------14-12-----|
E|---------------------------------------------------------15\-|


e|----12-15p12-10----------15p12-10----------15p12-10----------|
B|/15-------------12p10-------------12p10-------------12p10----|
G|----------------------12----------------12----------------12-|
D|-------------------------------------------------------------|
A|-------------------------------------------------------------|
E|-------------------------------------------------------------|


e|15p12-10----------15p12-10-------------------------------|
B|---------12p10-12----------12p10-12-15p12----------------|
G|------------------------------------------14-12----12-14-|
D|------------------------------------------------14-------|
A|---------------------------------------------------------|
E|---------------------------------------------------------|


e|---------------------------12-15p12----14p12----15p12----|
B|------------------------------------12-------12-------12-|
G|14-b16r14-12-14~~~~~-------------------------------------|
D|---------------------------------------------------------|
A|---------------------------------------------------------|
E|---------------------------------------------------------|


e|17p12----15p12----14p12----15p12----17p15----14p12/14-15p14/15-|
B|------12-------12-------12-------12-------12-------------------|
G|---------------------------------------------------------------|
D|---------------------------------------------------------------|
A|---------------------------------------------------------------|
E|---------------------------------------------------------------|


e|17p15/17-19p17/18-20p18/19-22p19-19-22b24----22b24----22b25|
B|-----------------------------------------------------------|
G|-----------------------------------------------------------|
D|-----------------------------------------------------------|
A|-----------------------------------------------------------|
E|-----------------------------------------------------------|





E|-------------------------------------------|
B|-------------------------------------------|
G|-------------------------------------------|
D|---0-2----0-2----5------0-2----0-2----2-3-4|
A|-----------------3--------------------0-1-2|
E|0-0---0-0-----------0-0---0-0--------------|





 Repeat Twice
e|---------------------------------------------------------| 
B|---------------------------------------------------------|      
G|---------------------------------------------------------|
D|---------------------------------------------------------|
A|-------10------9--------7------------5-----7h5-----------|
E|0-0-0-0-0-0-0-0-0-0-0-0-0-0-0-0-0-0-0-0-0-0-0-0-0--------|



Attack!

e|---------------------------------------------------------------------|
B|*--------------------------------------------------------------------|
G|---------------------------------------------------------------------|
D|---2---------------------------------7-------------------------------|
A|*--0--0-0-0-0-0-0-0-0-0-0-0-0-0-0----5--0-0-0-0-0-0-0-0-0-0-0-0-0-0--|
E|---------------------------------------------------------------------|
       



                                                     
e|----------------------------------------------------------------|
B|----------------------------------------------------------------|
G|----------------------------------------------------------------|
D|--4---------------------------------5--------------4---5---4----|
A|--2--0-0-0-0-0-0-0-0-0-0-0-0-0-0----3--0-0-0-0-0-0-2---3---2----|
E|----------------------------------------------------------------|
     




e|----------------------------------------------|
B|*---------------------------------------------|
G|---2--2-------5--2--------2--2------7--5------|
D|---2--2-------5--2--------2--2------7--5------|
A|*----------0---------0-----------0---------0--|
E|----------------------------------------------|



e|----------------------------------------------|
B|----------------------------------------------|
G|--2--2------5--2--------2--2------4--5----4---|
D|--2--2------5--2--------2--2------4--5----4---|
A|---------0---------0-----------0--------------|
E|----------------------------------------------|


 
 
e|------------------------------------------------------------------|
B|------------------------------------------------------------------|
G|------------------------------------------------------------------|
D|--5--------------4---5---4----5----4------2------------2----------|
A|--3--0-0-0-0-0-0-2---3---2----3----2------2------------2----------|
E|------------------------------------------0------------0----------|
                        


e|-------------------------------------------------------|
B|-------------------------------------------------------|
G|-------------------------------------------7-----------|
D|--2----------------------------------------7-----------|
A|--2----------------------------------------5-----------|
E|--0----------------------0---0--2--3--2----------------|
  



e|------------------------------|
B|------------------------------|
G|------------------------------|
D|--------------------2---------|
A|--------------------2---------|
E|--0---0--2--3--2----0---------|



This is my first Guitar Tab. My email is eliashs@wcs.k12.va.
Enjoy


Repeat=(r)
Tap to rate this tab
# A B C D E F G H I J K L M N O P Q R S T U V W X Y Z