Song name
# A B C D E F G H I J K L M N O P Q R S T U V W X Y Z

Metallica - Guitar Live In Texas tab

Help us improve GuitareTab! Take a short survey!
Band:Metallica
Song:Guitar Solo By Kirk Hammett (Live In Texas)
Album:Cunnig Stunts


Intro (whit distortion)
eb1-----------------------------------------------------------5~~--------5~~----1-|
Bb1-------------------5~~-----------5~~-----------------------5~~--------5~~----1-|
Gb1--------------5~~----------------------7~~5~~7~~-----------5~~--------5~~7~~~1-|
Db1--7~~~7~~-------------7~~~-------------------------------------7~~~----------1-|
Ab1-----------------------------------------------------------------------------1-|
Eb1-----------------------------------------------------------------------------1-|


Guitar Riff
eb1------------------------------------------------------------------------------1-|
Bb1-------------5~~--------------------------------------------------------------1-|
Gb1-------5~~-------------5~~~---------------------------7-5--------------------51-|
Db1--7~~-----------7~~~---------5~~~---------------------7-5-----------------/7--1-|
Ab1---------------------------------------------2~~----------------2~~-----------1-|
Eb1----------------------------------------3~~--------5~~-----3~~------5~~-------1-|


eb1-----------------------8h9p8h9p8\------------------------------------------1-|
Bb1---------------------------------------------------------------------------1-|
Gb1--------------------------------------------------------------------9~~----1-|
Db1----------------------------------------------------------6~~9~~-----------1-|
Ab1--------2~~----------------------------2~~---------7~~---------------------1-|
Eb1--3~~--------5~~------------------3~~-------0--7~~---------------0--------?1-|


eb1----12-----3?3h5p3p2---12------2-2-3-0----12------12-------7-------12-----------1-|
Bb1-------12-----0-----------12-----0------------12------12-------7-------12-------1-|
Gb1--------------------------------------------------------------------------12----1-|
Db1--------------------------------------------------------------------------------1-|
Ab1--------------------------------------------------------------------------------1-|
Eb1?0----------------------0----------------0------0-------0--------0--------------1-|

Clean
eb1--------------------------------------------------------1-|
Bb1--------------------------------------------------------1-|
Gb1---------0--------0--------0----------------------------1-|
Db1-------4--------5--------7--------0--------0--------0---1-|
Ab1----2---------3-------5--------4--------2---------------1-|
Eb1?0--------0--------0--------5--------3---------5--------1-|


Hey men this solo is correct only practic

All coment to sosomadark@hotmail.com

By Carlos Salazar (sama)
Related for Guitar Live In Texas tab