Guitaretab - guitar tabs
Song name
# A B C D E F G H I J K L M N O P Q R S T U V W X Y Z

Metallica - Requiem For A Marionette tab

Band- Metallica
Tuning- Standard

Kirk plays this when Lars has finished his
drum solo on Live ***: Binge & Purge (DVD 1 - San Diego).
This is how Kirk plays it but it's not the same as the original.
The ending is different.
[ Tab from: http://www.guitaretab.com/m/metallica/54628.html ]
E|---------------------------|
B|---------------------------|
G|---------------------------|
D|---------------------------|
A|-------0-2---2-1---1-0---0-|
E|-0-2-3-----3-----2-----1---|

E|-------------------------------|
B|-------------------------------|
G|-------------------------------|
D|---------------2-0-------------|
A|-------0-2---2-----2---0-2-2-2-|
E|-0-2-3-----3---------3-------0-|
   pm-----
Related for Requiem For A Marionette tab
×
Requiem For A Marionette