Guitaretab - guitar tabs
Song name
# A B C D E F G H I J K L M N O P Q R S T U V W X Y Z

Metallica - Melbourne Live tab

this is melbourne---all of it--- and the intro to nothing else matters....down one whole 
fun

(number)h(number)=hammeron
(number)p(number)=pull-off
  / or \=slide up or down
(number)^=harmonic
(number)~=let ring
 X=muted string

D#||--------------------------|--------------------------|
A#||--------------------------|--------------------------|
F#||--------------------------|--------------------------|
C#||--------------------------|--------------------------|
G#||--------------------------|--------------------------|
D#||--0^-0^-0^-0^-0^-0^-0^-0^-|--0^-0^-0^-0^-0^-0^-0^-0^-|

this note is made by briefly palm muting the open E and then lifting your hand after you 
the string

--------------------------|-------------------|---------------------------|
--------------------------|-------------------|---------------------------|
--------------------------|-------------------|---------------------------|
--------------------------|-------------------|---------6--6--7--7--7/9---|
--------------------------|-------------------|--0/7-7--------------------|
--0^-0^-0^-0^-0^-0^-0^-0^-|--0^---------------|---------------------------|

|------------------------|---------------------------|-----------------------|
|------------------------|---------------------------|-----------------------|
|------------------------|---------------------------|-------------7--9~-----|
|-------------9----------|---------6--6--7--7--7/9---|-----------------------|
|--7~------7-----7~------|--0/7-7--------------------|--7~------7---------7/-|
|-------0-------------0--|---------------------------|-------0---------------|

---------------------------|------------------------|
---------------------------|------------------------|
---------------------------|------------------------|
---------6--6--7--7--7/9---|-------------9----------|
--0/7-7--------------------|--7~------7-----7~------|
---------------------------|-------0-------------0--|

---------------------------|------------------------|
---------------------------|------------------------|
---------------------------|-------------7--9~------|
---------6--6--7--7--7/9---|------------------------|
--0/7-7--------------------|--7~------7-------------|
---------------------------|-------0-------------0--|

----------------------------------|-------------------------|
--9h10h9-9------------------------|-------------------------|
--9------9--11--9h11h9/7--9--9~---|-------------------------|
----------------------------------|--------------9----------|
----------------------------------|-------0/7-7-----7~------|
----------------------------------|--0-------------------0--|

----------------------------------|------------------------|
--9h10h9-9------------------------|------------------------|
--9------9--11--9h11h9/7--9--9~---|------------------------|
----------------------------------|-------------9----------|
----------------------------------|----------7-----7~------|
----------------------------------|--0----0-------------0--|

---------------------------|------------------------|
---------------------------|------------------------|
---------------------------|------------------------|
---------6--6--7--7--7/9---|-------------9----------|
--0/7-7--------------------|--7~------7-----7~------|
---------------------------|-------0-------------0--|

---------------------------|------------------------|
---------------------------|------------------------|
---------------------------|-------------7--9~------|
---------6--6--7--7--7/9---|------------------------|
--0/7-7--------------------|--7~------7-------------|
---------------------------|-------0-------------0--|

-----------------------------|---------------------------|
--7h8-7----------------------|---------8h7-5-------------|
--9---9--9--7h9h7-7----------|------7---------7----------|
---------------------7-------|--5/7--------------7/------|
------------------------5~---|----------------------3~---|
-----------------------------|---------------------------|

--------------------------|---------------------------|
--------6h5---------------|---------8h7-5-------------|
------------7--5----------|------7---------7----------|
-----5------------7-------|--5/7--------------7/------|
--3/-----------------5~---|----------------------3~---|
--------------------------|---------------------------|

----------------------------|------------------------------|
--------6-5---5-6-5---------|---------8-7---7-10-7---------|
------------7-------7-------|------7------9--------7-------|
-----5----------------------|--5/7-------------------------|
--3/-------------------5~---|-------------------------3~---|
----------------------------|------------------------------|

---------------------------|---------------------------|
---------8h7---------------|---------8--7--10--7-------|
------7------9--7----------|------7--7-----7-----------|
--5/7--------------7-------|--5/7----------------------|
----------------------5~---|----------------------3~---|
---------------------------|---------------------------|
[ Tab from: http://www.guitaretab.com/m/metallica/85007.html ]
-----------------------------|----------------------------|
-----------------------------|----------------------------|
---------------------9-------|----------------------------|
------5------7--9/11---------|------6--7--7/9-7--6--------|
--5/7----7/9-----------------|--0/7-----------------7-----|
------------------------0----|-------------------------0--|

------------------------|----------------------------|------------------------|
------------------------|----------------------------|------------------------|
-------------9----------|----------------------------|-------------9----------|
--9-------------9-------|------6--7--7/9-7--6--------|--9-------------9-------|
-----7~-----------------|--0/7-----------------7-----|-----7~-----------------|
----------0--------0----|-------------------------0--|----------0--------0----|

----------------------------|------------------------|
----------------------------|------------------------|
----------------------------|------------------------|
------6--7--7/9-7--6--------|--9----------9----------|
--0/7-----------------7-----|-----7~---------7-------|
-------------------------0--|----------0--------0----|

----------------------------|-----------------------|----------x----------|
----------------------------|-----------------------|----------x----------|
----------------------------|-------------7--9~-----|----------7--9--9----|
------6--7--7/9-7--6--------|--9--------------------|---------------------|
--0/7-----------------7-----|-----7~----------------|---------------------|
-------------------------0--|----------0------------|---------------------|

------------------------------|----------------------------------|
------------------------------|----------------------------------|
--7--9--9/11---9--11--11/14---|--11--14--14/16---14--16--16/19---|
------------------------------|----------------------------------|
------------------------------|----------------------------------|
------------------------------|----------------------------------|

---------------------------------------|
---------------------------------------|
--16--19--19/21---19/-16--19--16h19h16/|
---------------------------------------|
---------------------------------------|
---------------------------------------|

---------------------------------------------|--------------------------------|
---------------------------------------------|--------------------------------|
--14--16--14h16h14/11--11h14h11/9--9h11h9/7--|--7h9h7/4--4h7h4/2--4-2-0--2-0--|
---------------------------------------------|--------------------------------|
---------------------------------------------|--------------------------------|
---------------------------------------------|--------------------------------|

--------------------------|--------------------------|------------------|
--------------------------|--------------------------|------------------|
-----2--------------------|--------------------------|------------------|
--3-----2-----2-----------|--------------------------|------------------|
-----------3-----2-----2--|--------2--------1--------|------------------|
--------------------3-----|--3--2-----2--1-----1--0--|------------------|

--12^----7^----5^--------|------------------|--------------|-----------0-----|
----------------------|------------------|--------------|--------0-----0-----|
----------------------|------------------|--------------|-----0-----------0--|
----------------------|------------------|--------------|--------------------|
----------------------|------------------|--------------|--------------------|
----------------------|------------------|--------------|--0-----------------|

-----------0--------|-----------0--------|-----------0-----7--|
--------0-----0-----|--------0-----0-----|--------0-----0-----|
-----0-----------0--|-----0-----------0--|-----0--------------|
--------------------|--------------------|--------------------|
--------------------|--------------------|--------------------|
--0-----------------|--0-----------------|--0-----------------|

--7--------7h0-------|--------7--8--7h8h7/5--|--7--5/-0--|--0--------2h0-----|
--------0------0-----|--------0--0--0--------|--0--0-----|--------5------5---|
-----0------------0--|-----0-----------------|-----------|-----5-----------5-|
---------------------|-----------------------|-----------|-------------------|
---------------------|-----------------------|--------0--|--0----------------|
--0--------0---------|--0--------------------|-----------|-------------------|

-----------0--------|---------0---3h0---------|---------0---0h5h0---------|
--------5-----5--5--|--5----5---5-----5-----5/|-------7---7-------7h0-0-5-|
-----5--------------|-----5-------------5-----|-----7---------------------|
--------------------|-------------------------|---------------------------|
--0-----------0--2--|--3------------------3---|--5------------------------|
--------------------|-------------------------|---------------------------|

---------------|--------------||
---------------|--------------||
---------------|--------------||
---------------|--------------||
---------------|--------------||
--0------------|--------------||
Related for Melbourne Live tab
Melbourne Live chords by Metallica