Guitaretab - guitar tabs
Song name
# A B C D E F G H I J K L M N O P Q R S T U V W X Y Z

Meters - Cissy Strut tab

-------------------------------------------------------------------------------
			Cissy Strut  The Meters
-------------------------------------------------------------------------------

Tuning: standard

e|---------------------------------------------------------------------------------|
B|---------------------------------------------------------------------------------|
G|---------5p3---------------------------------------------------------------------|
D|----------------5----------------------------------------------------------------|
A|---------------------6----3---------------3--3-----------------------------------|
E|------------------------------------33--5---5------------------------------------|


The part in between is
[ Tab from: http://www.guitaretab.com/m/meters/138789.html ]
e|----------------6--6-----5---5---------------------------------------------------|
B|----------------6--6-----6---6---------------------------------------------------|
G|----------------7--7-----5---5---------------------------------------------------|
D|---------------------------------------------------------------------------------|
A|---------------------------------------------------------------------------------|
E|---------------------------------------------------------------------------------|

The next part is

e|-------------------------------------------------------------------------------|
B|-------------------------------------------------------------------------------|
G|----------5---------3-5p3--------5-3------5---35p3----------------------------|
D|--------------------------------5-----------------------------5----------------|
A|---------------------------------------------------------------------3---------|
E|-------------------------------------------------------------------------------|
LEGEND

| /  slide up
|   slide down
| h  hammer-on
| p  pull-off
| ~  vibrato
| +  harmonic
| x  Mute note
===============================================================================
Related for Cissy Strut tab