Song name
# A B C D E F G H I J K L M N O P Q R S T U V W X Y Z

Meters - I Need More Time tab

INTRO
e|------------------|
B|------------------|
G|------------------|
D|--5--2----7--5----|x2
A|--5--2----7--5----|
E|--3--0----5--3----|



e|--------------------7-7--------------------7-7-
B|--------------------7-7--------------------7-7-
G|--------------------7-7--------------------7-7-
D|----------5----------------------7-5-----------
A|------5h7---7----------------5h7---------------
E|--5h7------------0-------5h7------------0------


e|--------------------7-7--------------------7-7|
B|--------------------7-7--------------------7-7|
G|--------------------7-7--------------------7-7|
D|----------5----------------------7-5----------|x2
A|------5h7-----7--------------5h7--------------|
E|--5h7------------0-------5h7------------0-----|


e|-----------------------------|
B|-----------------------------|
G|----------0------------------|
D|------0h2-----2p0------------|
A|--0h2-------------2p0--------|
E|----------------------3-0-0--|

e|--------------------7-7--------------------7-7-
B|--------------------7-7--------------------7-7-
G|--------------------7-7--------------------7-7-
D|----------5----------------------7-5-----------
A|------5h7---7----------------5h7---------------
E|--5h7------------0-------5h7------------0------


e|--------------------7-7--------------------7-7|
B|--------------------7-7--------------------7-7|
G|--------------------7-7--------------------7-7|
D|----------5----------------------7-5----------|
A|------5h7-----7--------------5h7--------------|
E|--5h7------------0-------5h7------------0-----|


CHORUS
e|-------------------------------|
B|-----------------------5--7--9-|
G|--1------4------6--6-6-5--7--9-|
D|--2------5------7--7-7-5--7--9-|x4
A|--2------5------7--7-7-3--5--7-|
E|--0------3------5--5-5---------|



e|-----------------------------------------------------------------|
B|-----------------------------------------------------------------|
G|--9h11------9h11------12-10-9-10-9-----9h11------9h11-----9----9-|
D|-------9h11------9h11-----------------------9h11------9h11-------|
A|-----------------------------------------------------------------|
E|-----------------------------------------------------------------|

e|-------------------------------7-7-------------------x-7----7----7-7--|
B|-------------------------------7-7-------------------x-7----7----7-7--|
G|-------------------------------7-7-------------------x-7----7----7-7--|
D|----------------------------------------------------------------------|
A|----------------------------------------------------------------------|
E|--0----3--5--3--0-------------------0----3--5--3--0-------------------|

Chorus x8? fade out...
Tap to rate this tab
# A B C D E F G H I J K L M N O P Q R S T U V W X Y Z