Song name
# A B C D E F G H I J K L M N O P Q R S T U V W X Y Z

Meters - Cissy Strut tab

-----------------------------------------------------------------------------
			 CISSY STRUT - The Meters
-----------------------------------------------------------------------------
Tabbed by: Mat Paget

I was looking at the tabs and none of them were right, so I decided to put the correct version up.

Tuning: Standard


e|-----------------------------------6-6---5-5---|
B|-----------------------------------6-6---6-6---|
G|--5p3------------------------------7-7---5-5---|
D|-------5---------------------------------------|
A|----------6b--3~--------3-----3----------------|
E|------------------3h5------5-------------------|

e|---------------------------------------------|
B|---------------------------------------------|
G|--5-----5--3--5--3----5-----5--3-------------|
D|-----5-------------------5--------5----------|
A|-------------------------------------3~------|
E|---------------------------------------------|


This is the chord that is played during the organ solo
e|---3----|
B|---3----|
G|---3----|
D|---2----|
A|---3----|
E|--------| 



************************************

| /   slide up
| \   slide down
| h   hammer-on
| p   pull-off
| ~   vibrato
| +   harmonic
| x   Mute note
| b   Bend
| pb  Pre-bend
| br  Bend release
| pbr Pre-bend release
| brb Bend release bend

************************************
Tap to rate this tab
 
# A B C D E F G H I J K L M N O P Q R S T U V W X Y Z