Song name
# A B C D E F G H I J K L M N O P Q R S T U V W X Y Z

Method Of Destruction - Bubble Butt tab

MOD - Method Of Destruction
Bubble Butt
U.S.A. For M.O.D.
0:44

Tabbed by: Jeff
E-mail: Jam66upyrs@msn.com

Tuning: Standard
e B G D A E


Drum Intro x4
Bass/Drums x4

Verse: "Bubble Butt!..."
            x10
e-/-||-------||
B-/-||-------||
G-/-||-------||
D-/-||-------||
A-/-||-4-4-3-||
E-/-||-2-2-3-||
    PM|-----|


Break: "She's so fat!"
          x1
e---------||
B---------||
G---------||
D---------||
A-4-4-(2)-||
E-2-2-(0)-||


Chorus: "Bubb-bubb-le-bubb-lel-leu-bul-Bubble Butt!"

e-------------------------||---||
B-------------------------||---||
G-------------------------||---||
D-------------------------||---||
A-4-4-4-4-4-4-4-4-4-4-(2)-||---||
E-2-2-2-2-2-2-2-2-2-2-(0)-||---||

Drums/Bass x4


Verse: "Bubble Butt!..."
            x10
e-/-||-------||
B-/-||-------||
G-/-||-------||
D-/-||-------||
A-/-||-4-4-3-||
E-/-||-2-2-3-||
    PM|-----|

Break: "She's so fat!"
          x1
e---------||
B---------||
G---------||
D---------||
A-4-4-(2)-||
E-2-2-(0)-||


Chorus: "Bubb-bubb-le-bubb-lel-leu-bul-bubb-lebu-Bubble Butt!"

e-------------------------||
B-------------------------||
G-------------------------||
D-------------------------||
A-4-4-4-4-4-4-4-4-4-4-(2)-||
E-2-2-2-2-2-2-2-2-2-2-(0)-||


Outro:

e----||--||
B----||--||
G----||--||
D----||--||
A-2~-||--||
E-0~-||--||


| ~  = Vibrato/Whammy
| PM = Palm-mute
| () = Hold note
|  \ = Slide




Tap to rate this tab
 
# A B C D E F G H I J K L M N O P Q R S T U V W X Y Z