Song name
# A B C D E F G H I J K L M N O P Q R S T U V W X Y Z

Metric - Help Im Alive tab

Help us improve GuitareTab! Take a short survey!
Song: Help I'm Alive
By: Metric
Tabbed by: Madison Wikston
Email:madness_225@hotmail.com

Tuning: eBGDAD

"I tremble,"
e|---------------------|
B|---------------------|
G|---------------------|
D|--8----10----5----1--| X4
A|--8----10----5----1--|
D|--8----10----5----1--|

"Beating like a hammer,"
e|---------------------------|
B|---------------------------|
G|--12-12-12-12-12-12-12-12--|
D|--12-12-12-12-12-12-12-12--|X4
A|--10-10-10-10-10-10-10-10--|
D|---------------------------|

(i divided the next two parts into fours just so it's easier to count)

"Help, I'm alive,"
e|----------------------------------------------------------|
B|----------------------------------------------------------|
G|--8888-8888-7777-8888-8888-8888-8888-8888-7777-7777-7777--|
D|----------------------------------------------------------|
A|----------------------------------------------------------|
D|----------------------------------------------------------|

"Come, take my pulse,"
e|-------------------------------------------------------------------------|
B|-------------------------------------------------------------------------|
G|--8888-8888-8888-8888-8888-8888-7777-8888-8888-8888-8888-8888-8888-7777--|
D|-------------------------------------------------------------------------|
A|-------------------------------------------------------------------------|
D|-------------------------------------------------------------------------|

"Beating like a hammer,"
e|---------------------------|
B|---------------------------|
G|--12-12-12-12-12-12-12-12--|
D|--12-12-12-12-12-12-12-12--|X8
A|--10-10-10-10-10-10-10-10--|
D|---------------------------|

"...If you're still alive,"
e|----------------------------------------|
B|----------------------------------------|
G|-------------10----------------------8--|
D|--8-8-8-8----10----10-10-10-10-10----8--|  
A|--8-8-8-8----8-----10-10-10-10-10----6--|            
D|--8-8-8-8----------10-10-10-10-10-------|

e|------------------------------------------|
B|------------------------------------------|
G|---------------10----------------------8--|
D|--8-8-8-8-8----10----10-10-10-10-10----8--|  X6
A|--8-8-8-8-8----8-----10-10-10-10-10----6--|            
D|--8-8-8-8-8----------10-10-10-10-10-------|

e|-------------------------------------------------|
B|-------------------------------------------------|
G|---------------10--------------------------------|
D|--8-8-8-8-8----10----10-10-10-10-10-10-10-10-10--|  
A|--8-8-8-8-8----8-----10-10-10-10-10-10-10-10-10--|            
D|--8-8-8-8-8----------10-10-10-10-10-10-10-10-10--|

"Beating like a hammer,"
e|---------------------------|
B|---------------------------|
G|--12-12-12-12-12-12-12-12--|
D|--12-12-12-12-12-12-12-12--|X4
A|--10-10-10-10-10-10-10-10--|
D|---------------------------|

"Help, I'm alive."
e|----------------------------------------------------------|
B|----------------------------------------------------------|
G|--8888-8888-7777-8888-8888-8888-8888-8888-7777-7777-7777--|
D|----------------------------------------------------------|
A|----------------------------------------------------------|
D|----------------------------------------------------------|

"Come, take my pulse,"
e|-------------------------------------------------------------------------|
B|-------------------------------------------------------------------------|
G|--8888-8888-8888-8888-8888-8888-7777-8888-8888-8888-8888-8888-8888-7777--|
D|-------------------------------------------------------------------------|
A|-------------------------------------------------------------------------|
D|-------------------------------------------------------------------------|

"Beating like a hammer,"
e|---------------------------|
B|---------------------------|
G|--12-12-12-12-12-12-12-12--|
D|--12-12-12-12-12-12-12-12--|X8
A|--10-10-10-10-10-10-10-10--|
D|---------------------------|

"...If you're still alive,"
e|----------------------------------------|
B|----------------------------------------|
G|-------------10----------------------8--|
D|--8-8-8-8----10----10-10-10-10-10----8--|  
A|--8-8-8-8----8-----10-10-10-10-10----6--|            
D|--8-8-8-8----------10-10-10-10-10-------|

e|------------------------------------------|
B|------------------------------------------|
G|---------------10----------------------8--|
D|--8-8-8-8-8----10----10-10-10-10-10----8--|  X6
A|--8-8-8-8-8----8-----10-10-10-10-10----6--|            
D|--8-8-8-8-8----------10-10-10-10-10-------|

e|-------------------------------------------------|
B|-------------------------------------------------|
G|---------------10--------------------------------|
D|--8-8-8-8-8----10----10-10-10-10-10-10-10-10-10--|  
A|--8-8-8-8-8----8-----10-10-10-10-10-10-10-10-10--|            
D|--8-8-8-8-8----------10-10-10-10-10-10-10-10-10--|

"Beating like a hammer,"
e|---------------------------|
B|---------------------------|
G|--12-12-12-12-12-12-12-12--|
D|--12-12-12-12-12-12-12-12--| X8
A|--10-10-10-10-10-10-10-10--|
D|---------------------------|

...

"I tremble,"
e|---------------------|
B|---------------------|
G|---------------------|
D|--8----10----5----1--| X4
A|--8----10----5----1--|
D|--8----10----5----1--|

"Beating like a hammer,"
e|---------------------------|
B|---------------------------|
G|--12-12-12-12-12-12-12-12--|
D|--12-12-12-12-12-12-12-12--| X8
A|--10-10-10-10-10-10-10-10--|
D|---------------------------|

"Help, I'm alive. My heart keeps beating like a hammer."

enjoy :)
Related for Help Im Alive tab