Song name
# A B C D E F G H I J K L M N O P Q R S T U V W X Y Z

Metric - Stadium Love tab

Help us improve GuitareTab! Take a short survey!
#----------------------------------PLEASE NOTE---------------------------------#
#This file is the author's own work and represents their interpretation of the #
#song. You may only use this file for private study, scholarship, or research. #
#------------------------------------------------------------------------------##


Artist: Metric
Song: Stadium Love
Tabbed by: Manthony
03.04.13


TUNING: (E A D G B E)





E||-----------------------------------------------------------------------------------||
B||----------------------------------------------------------------------10-10-10-10--||
G||-----------------------------------------------------------------------x--x--x--x--|| 
D||-10~-------------------------------------------------------------------7--7--7--7--||
A||--8~-------------------------------------------------------------------------------||
E||--8~-------------------------------------------------------------------------------||

Wanna make a bet	Will be making it	Taking off the gloves


E||-----------------------------------------------------------------------------------||
B||----------------------------------------------------------------------10-10-10-10--||
G||-----------------------------------------------------------------------x--x--x--x--|| 
D||-10~-------------------------------------------------------------------7--7--7--7--||
A||--8~-------------------------------------------------------------------------------||
E||--8~-------------------------------------------------------------------------------||

Spider verses bat	Tiger verses rat	Rabbit verses dove


E||-----------------------------------------------------------------------------------||
B||----------------------------------------------------------------------10-10-10-10--||
G||-----------------------------------------------------------------------x--x--x--x--|| 
D||-10~-------------------------------------------------------------------7--7--7--7--||
A||--8~-------------------------------------------------------------------------------||
E||--8~-------------------------------------------------------------------------------||

Wanna make a bet	Odds are neck and neck	Taking off the gloves


E||-----------------------------------------------------------------------------------||
B||----------------------------------------------------------------------10-10-10-10--||
G||-----------------------------------------------------------------------x--x--x--x--|| 
D||-10~-------------------------------------------------------------------7--7--7--7--||
A||--8~-------------------------------------------------------------------------------||
E||--8~-------------------------------------------------------------------------------||
 
Spider verses bat	Tiger verses rat	Owl verses dove







*tremolo picking
E||-------------------------------------|-------------------||
B||-------------------------------------|-------------------||
G||-------------------------------------|-------------------|| 
D||-------------------------------------|-------------------||
A||-8///--7///--5///--3///--1///--0///--|-5///--1///--0///--||
E||-------------------------------------|-------------------||


Every living thing
Pushed into the ring
Fight it out to wow the crowd
Guess he thought
We could just watch
But no one's getting out


...................................................................................................


E||---------------------|---------------------|---------------------|--------------------||
B||---------------------|---------------------|---------------------|--------------------||
G||---------------------|---------------------|---------------------|--------------------|| 
D||-10\9------10----10--|-10\9------10----10--|-10\9------10----10--|-10~----------------||
A||--8\7---12----12-----|--8\7---12----12-----|--8\7---12----12-----|--8~----------------||
E||--8\7----------------|--8\7----------------|--8\7----------------|--8~------------5~--||
           Ooo, Ooo, Ooo         Ooo, Ooo, Ooo         Ooo, Ooo, Ooo       we've got stadium love


E||---------------------|---------------------|---------------------|--------------------||
B||---------------------|---------------------|---------------------|--------------------||
G||---------------------|---------------------|---------------------|--------------------|| 
D||-10\9------10----10--|-10\9------10----10--|-12\8------10----10--|--------------------||
A||--8\7---12----12-----|--8\7---12----12-----|-10\8---12----12-----|--------------------||
E||--8\7----------------|--8\7----------------|-10\6----------------|--5~-----------17~--||
           Ooo, Ooo, Ooo         Ooo, Ooo, Ooo         Ooo, Ooo, Ooo      we've got stadium love



...................................................................................................


E||-----------------------------------------------------------------------------------||
B||----------------------------------------------------------------------10-10-10-10--||
G||-----------------------------------------------------------------------x--x--x--x--|| 
D||-10~-------------------------------------------------------------------7--7--7--7--||
A||--8~-------------------------------------------------------------------------------||
E||--8~-------------------------------------------------------------------------------||
Wanna make a trade	Cougar for a snake	Wanna fall in love


E||-----------------------------------------------------------------------------------||
B||----------------------------------------------------------------------10-10-10-10--||
G||-----------------------------------------------------------------------x--x--x--x--|| 
D||-10~-------------------------------------------------------------------7--7--7--7--||
A||--8~-------------------------------------------------------------------------------||
E||--8~-------------------------------------------------------------------------------||
Wanna make a deal	Angel verses eel	Owl verses dove


E||-----------------------------------------------------------------------------------||
B||----------------------------------------------------------------------10-10-10-10--||
G||-----------------------------------------------------------------------x--x--x--x--|| 
D||-10~-------------------------------------------------------------------7--7--7--7--||
A||--8~-------------------------------------------------------------------------------||
E||--8~-------------------------------------------------------------------------------||
Every living thing	Pushed into the ring	Fight it out to wow the crowd


E||-----------------------------------------------------------------------------------||
B||----------------------------------------------------------------------10-10-10-10--||
G||-----------------------------------------------------------------------x--x--x--x--|| 
D||-10~-------------------------------------------------------------------7--7--7--7--||
A||--8~-------------------------------------------------------------------------------||
E||--8~-------------------------------------------------------------------------------||
Guess he thought	We could just watch	But no one's getting out


...................................................................................................


E||---------------------|---------------------|---------------------|--------------------||
B||---------------------|---------------------|---------------------|--------------------||
G||---------------------|---------------------|---------------------|--------------------|| 
D||-10\9------10----10--|-10\9------10----10--|-10\9------10----10--|-10~----------------||
A||--8\7---12----12-----|--8\7---12----12-----|--8\7---12----12-----|--8~----------------||
E||--8\7----------------|--8\7----------------|--8\7----------------|--8~------------5~--||
           Ooo, Ooo, Ooo         Ooo, Ooo, Ooo         Ooo, Ooo, Ooo       we've got stadium love


E||---------------------|---------------------|---------------------|--------------------||
B||---------------------|---------------------|---------------------|--------------------||
G||---------------------|---------------------|---------------------|--------------------|| 
D||-10\9------10----10--|-10\9------10----10--|-12\8------10----10--|--------------------||
A||--8\7---12----12-----|--8\7---12----12-----|-10\8---12----12-----|--------------------||
E||--8\7----------------|--8\7----------------|-10\6----------------|--5~-----------17~--||
           Ooo, Ooo, Ooo         Ooo, Ooo, Ooo         Ooo, Ooo, Ooo      we've got stadium love



...................................................................................................




Bridge

E||----------------------------------------------------------------------------------------||
B||----------------------------------------------------------------------------------------||
G||----------------------------------------------------------------------------------------|| 
D||--12-12-12-12-12-12-12--14--10-10-10-10-10-10-10-10--8-8-8-8-8-8-8--7--5-5-5-5-5-5-5-5--|| x3
A||----------------------------------------------------------------------------------------||
E||----------------------------------------------------------------------------------------||

E||----------------------------------------------------------------------------------------||
B||----------------------------------------------------------------------------------------||
G||----------------------------------------------------------------------------------------|| x1
D||--12-12-12-12-12-12-12--14--10-10-10-10-10-10-10-10--12-12-12-12-12-12-12-12--14~~~~~~--||
A||----------------------------------------------------------------------------------------||
E||----------------------------------------------------------------------------------------||
           







#----------------------------------PLEASE NOTE---------------------------------#
#This file is the author's own work and represents their interpretation of the #
#song. You may only use this file for private study, scholarship, or research. #
#------------------------------------------------------------------------------##

Related for Stadium Love tab