Song name
# A B C D E F G H I J K L M N O P Q R S T U V W X Y Z

Metric - Collect Call tab

#----------------------------------PLEASE NOTE---------------------------------#
#This file is the author's own work and represents their interpretation of the #
#song. You may only use this file for private study, scholarship, or research. #
#------------------------------------------------------------------------------##


Artist: Metric
Song: Collect Call
Tabbed by: Manthony
03.04.14


TUNING: (E A D G B E)


CHORD DIAGRAM


----------------------------------------------------------------

 D#m            G#m             B              F#                     
                                  
 x 6 8 8 7 6    4 6 6 4 4 4     7 9 9 8 7 7    x 9 8 6 7 6 


 F#7M           C#sus2          Bsus2                              
                                  
 x 9 8 6 6 6    x 4 6 6 4 4     x 2 4 4 2 2

       
----------------------------------------------------------------





E|----------------------------------------------|------------------------------------------------||
B|--------------------------7-6-----------------|------------------------------6-7-6-------------||
G|------3--------6-8~-----------8-6-------------|-------------------6-8~---6-8-------8-6---------||
D|--4h6--------8---------------------8-6--------|--------6--------8----------------------8-6-----||
A|6---------6----------------------------9--6~--|-6--6-9---6~---6----------------------------9--6||
E|----------------------------------------------|------------------------------------------------||
                            
If the fire's out baby
How you gonna keep me warm
Supposing you let me
With the door wide open no one can leave



E||------------------------------------------------------------------------------||
B||------------------------------------------------------------------------------||
G||------------------------------------------------------------------------------|| 
D||-----3~-------3~-------4~-------4~-------11~-------11~-------11~-------11~----||
A||-1-1----1-1-1----1/2-2----2-2-2----2/9-9-----9-9-9-----9-9-9-----9-9-9-----9--||
E||------------------------------------------------------------------------------||
           I know it's a lie I want it to be true


E||--------------------------------------------------------------------------||
B||--------------------------------------------------------------------------||
G||--------------------------------------------------------------------------|| 
D||-----6~-------6~-------8~-------8~-------4~-------4~-------4~-------4~----||
A||-4-4----4-4-4----4/6-6----6-6-6----6\2-2----2-2-2----2-2-2----2-2-2----2--||
E||--------------------------------------------------------------------------||
           The rest of the ride is riding on you


E||------------------------------------------------------------------------------||
B||------------------------------------------------------------------------------||
G||------------------------------------------------------------------------------|| 
D||-----3~-------3~-------4~-------4~-------11~-------11~-------11~-------11~----||
A||-1-1----1-1-1----1/2-2----2-2-2----2/9-9-----9-9-9-----9\8-8-----8-8-8-----8--||
E||------------------------------------------------------------------------------||
           Over goodbyes we'll buy some place for	     Wishing you could
  



.................................................................................................

*pick through these chords
     D#m                     G#m                      B                         F#    F#7M
E||--6~----------------------4~-----------------------7~------------------------6~----6~--||
B||--7~----------------------4~-----------------------7~------------------------7~----6~--||
G||--8~----------------------4~-----------------------8~------------------------6~----6~--|| 
D||--8~----------------------6~-----------------------9~------------------------8~----8~--||
A||--6~----------------------6~-----------------------9~------------------------9~----9~--||
E||--------------------------4~-----------------------7~----------------------------------||
     Keep me closer    I'm a lazy dancer     When you move I move with you

..................................................................................................




E|----------------------------------------------|------------------------------------------------||
B|--------------------------7-6-----------------|------------------------------6-7-6-------------||
G|------3--------6-8~-----------8-6-------------|-------------------6-8~---6-8-------8-6---------||
D|--4h6--------8---------------------8-6--------|--------6--------8----------------------8-6-----||
A|6---------6----------------------------9--6~--|-6--6-9---6~---6----------------------------9--6||
E|----------------------------------------------|------------------------------------------------||




D#m    C#sus2     Bsus2
If somebody's got soul
                   D#m    C#sus2     Bsus2
You gotta make the move
         D#m    C#sus2     Bsus2
Make the move



E||------------------------------------------------------------------------------||
B||------------------------------------------------------------------------------||
G||------------------------------------------------------------------------------|| 
D||-----3~-------3~-------4~-------4~-------11~-------11~-------11~-------11~----||
A||-1-1----1-1-1----1/2-2----2-2-2----2/9-9-----9-9-9-----9-9-9-----9-9-9-----9--||
E||------------------------------------------------------------------------------||
           I know it's a lie I want it to be true


E||--------------------------------------------------------------------------||
B||--------------------------------------------------------------------------||
G||--------------------------------------------------------------------------|| 
D||-----6~-------6~-------8~-------8~-------4~-------4~-------4~-------4~----||
A||-4-4----4-4-4----4/6-6----6-6-6----6\2-2----2-2-2----2-2-2----2-2-2----2--||
E||--------------------------------------------------------------------------||
           The rest of the ride is riding on you


E||------------------------------------------------------------------------------||
B||------------------------------------------------------------------------------||
G||------------------------------------------------------------------------------|| 
D||-----3~-------3~-------4~-------4~-------11~-------11~-------11~-------11~----||
A||-1-1----1-1-1----1/2-2----2-2-2----2/9-9-----9-9-9-----9\8-8-----8-8-8-----8--||
E||------------------------------------------------------------------------------||
           Over goodbyes we'll buy some place for	     Wishing you could
  



.................................................................................................

*pick through these chords
     D#m                     G#m                      B                         F#    F#7M
E||--6~----------------------4~-----------------------7~------------------------6~----6~--||
B||--7~----------------------4~-----------------------7~------------------------7~----6~--||
G||--8~----------------------4~-----------------------8~------------------------6~----6~--|| 
D||--8~----------------------6~-----------------------9~------------------------8~----8~--||
A||--6~----------------------6~-----------------------9~------------------------9~----9~--||
E||--------------------------4~-----------------------7~----------------------------------||
     Keep me closer    I'm a lazy dancer     When you move I move with you

..................................................................................................


#----------------------------------PLEASE NOTE---------------------------------#
#This file is the author's own work and represents their interpretation of the #
#song. You may only use this file for private study, scholarship, or research. #
#------------------------------------------------------------------------------##




Tap to rate this tab
# A B C D E F G H I J K L M N O P Q R S T U V W X Y Z