Song name
# A B C D E F G H I J K L M N O P Q R S T U V W X Y Z

Metric - Blindness tab

#----------------------------------PLEASE NOTE---------------------------------#
#This file is the author's own work and represents their interpretation of the #
#song. You may only use this file for private study, scholarship, or research. #
#------------------------------------------------------------------------------##


Artist: Metric
Song: Blindness
Tabbed by: Manthony
03.04.14


TUNING: (E A D G B E)


CHORD DIAGRAM

----------------------------------------------------------------

 B              G               F#m            D6                     
                                  
 7 9 9 8 7 7    3 5 5 4 3 3     2 4 4 2 2 2    x x 0 2 0 2 

 Em             C                                  
                                  
 0 2 2 0 0 0    x 3 2 0 1 0    

       
----------------------------------------------------------------





E||----------------------------------|--------------------------------||
B||----------------------------------|--------------------------------||
G||----------------------------------|--------------------------------|| 
D||----9-9-9-9-9-7-9----9-9-9-9-9-7~-|---9-9-9-9-9-7-9---9-9-9-9-9-7~-||
A||-7~---------------7~--------------|--------------------------------||
E||----------------------------------|-8~--------------8~-------------||
                            
E||----------------------------------|--------------------------------||
B||----------------------------------|--------------------------------||
G||----------------------------------|--------------------------------|| 
D||----9-9-9-9-9-7-9----9-9-9-9-9-7~-|---9-9-9-9-9-7-9---9-9-9-9-9-7~-||
A||----------------------------------|--------------------------------||
E||-9~---------------9~--------------|-8~--------------8~-------------||

Send us a blindfold, send us a blade
                                      Tell the survivors help is on the way



E||-------------------------------------------------------------------------||
B||-------------------------------------------------------------------------||
G||-------------------------------------------------------------------------|| 
D||----5-5-5-5-5-5/7---5-5-5-5-5-5-5-4-0--7-7-7-7-7-7/9--0-7-7-7-7-7-7-5----||
A||-------------------------------------------------------------------------||
E||-3~---------------3~-----------------------------------------------------||

E||-----------------------------------|-----------------------------------||
B||-----------------------------------|-----------------------------------||
G||-----------------------------------|-----------------------------------|| 
D||----9-9-9-9-9-7-9----9-9-9-9-9-7-9-|----9-9-9-9-9-7-9----9-9-9-9-9-7~--||
A||-7~---------------7~---------------|-6~---------------6~---------------||
E||-----------------------------------|-----------------------------------||

I was a blindfold, never complained
                                      All the survivors singing in the rain





E||-------------------------------------------------------------------------||
B||-------------------------------------------------------------------------||
G||-------------------------------------------------------------------------|| 
D||----5-5-5-5-5-5/7---5-5-5-5-5-5-5-4-0--7-7-7-7-7-7/9--0-7-7-7-7-7-7-5----||
A||-------------------------------------------------------------------------||
E||-3~---------------3~-----------------------------------------------------||

E||-----------------------------------|-----------------------------------||
B||-----------------------------------|-----------------------------------||
G||-----------------------------------|-----------------------------------|| 
D||----9-9-9-9-9-7-9----9-9-9-9-9-7-9-|----9-9-9-9-9-7-9----9-9-9-9-9-7~--||
A||-7~---------------7~---------------|-6~---------------6~---------------||
E||-----------------------------------|-----------------------------------||

I was the one with the world at my feet
				         Got us a battle, leave it up to me





E||----------------------------------|--------------------------------||
B||----------------------------------|--------------------------------||
G||----------------------------------|--------------------------------|| 
D||----9-9-9-9-9-7-9----9-9-9-9-9-7~-|---9-9-9-9-9-7-9---9-9-9-9-9-7~-||
A||-7~---------------7~--------------|--------------------------------||
E||----------------------------------|-8~--------------8~-------------||
                            
E||----------------------------------|--------------------------------||
B||----------------------------------|--------------------------------||
G||----------------------------------|--------------------------------|| 
D||----9-9-9-9-9-7-9----9-9-9-9-9-7~-|---9-9-9-9-9-7-9---9-9-9-9-9-7~-||
A||----------------------------------|--------------------------------||
E||-9~---------------9~--------------|-8~--------------8~-------------||

Find us a trap door, find us a plane
				      Tell the survivors help is on the way


E||-------------------------------------------------------------------------||
B||-------------------------------------------------------------------------||
G||-------------------------------------------------------------------------|| 
D||----5-5-5-5-5-5/7---5-5-5-5-5-5-5-4-0--7-7-7-7-7-7/9--0-7-7-7-7-7-7-5----||
A||-------------------------------------------------------------------------||
E||-3~---------------3~-----------------------------------------------------||

E||-----------------------------------|-----------7~----------------------15~--||
B||-----------------------------------|-----------7~----------------------12~--||
G||-----------------------------------|-----------8~----------------------12~--|| 
D||----9-9-9-9-9-7-9----9-9-9-9-9-7-9-|-----------9~----------------------12~--||
A||-7~---------------7~---------------|-----------9~---------------------------||
E||-----------------------------------|-----------7~---------------------------||

I was a blindfold, never complained
                                       All the survivors singing in the rain



E||--------14~-----------------------12~--|------7~--------------------3--||
B||--------12~-----------------------12~--|------7~--------------------3--||
G||--------14~-----------------------12~--|------8~--------------------4--|| 
D||--------0-~-----------------------14~--|------9~--------------------5--||
A||---------------------------------------|------9~--------------------5--||
E||---------------------------------------|------7~-~------------------3--||

I was the one with the world at my feet
                                       Got us a battle, leave it up to me






.....................................................


E||-----------------------8--||
B||-----------------------8--||
G||-----------------------9--|| 
D||----------------------10--||
A||----------------------10--||
E||-----------------------8--||

What it is and where it stops nobody knows



E||-----------7-------------||
B||-----------8-------------||
G||-----------9-------------|| 
D||-----------9-------------||
A||-----------7-------------||
E||-------------------------||

You gave me a life I never chose


E||-------------------3------||
B||-------------------3------||
G||-------------------4------|| 
D||-------------------5------||
A||-------------------5------||
E||-------------------3------||

I wanna leave but the world won't let me go
Wanna leave but the world won't let me go


.....................................................



#----------------------------------PLEASE NOTE---------------------------------#
#This file is the author's own work and represents their interpretation of the #
#song. You may only use this file for private study, scholarship, or research. #
#------------------------------------------------------------------------------##




Tap to rate this tab
 
# A B C D E F G H I J K L M N O P Q R S T U V W X Y Z