Song name
# A B C D E F G H I J K L M N O P Q R S T U V W X Y Z

Metric - Satellite Mind tab

Song: Satellite Mind
By: Metric
Tabbed by: Madison Wikston
Email: madness_225@hotmail.com

Tuning: Drop D

I separated most of the chords in the pre-chorus and chorus into fours just to make it 
to count. listen to the song for strumming.

Verse
e|-------------------------------------------------------|
B|-------------------------------------------------------|
G|-------------------------------------------------------|
D|--4--4--4--2-4--2-4--4--4--0--0--0--2-4--2-2--2--2--2--|
A|--4--4--4--2-4--2-4--4--4--0--0--0--2-4--2-2--2--2--2--|
D|--4--4--4--2-4--2-4--4--4--0--0--0--2-4--2-2--2--2--2--|

Pre-chorus
e|--------------------------------------------------------------------------|
B|--------------------------------------------------------------------------|
G|--4-4-4-4--4-4-4-4--4-4-4-4--4-4-7-7---------------------------------7-7--|
D|--4-4-4-4--4-4-4-4--4-4-4-4--4-4-7-7--4-4-4-4--4-4-4-4--4-4-4-4--4-4-5-5--|
A|--2-2-2-2--2-2-2-2--2-2-2-2--2-2-5-5--4-4-4-4--4-4-4-4--4-4-4-4--4-4-5-5--|
D|--------------------------------------4-4-4-4--4-4-4-4--4-4-4-4--4-4------|

e|--------------------------------------------------------------------------|
B|--------------------------------------------------------------------------|
G|--4-4-4-4--4-4-4-4--4-4-4-4--4-4-7-7--------------------------------------|
D|--4-4-4-4--4-4-4-4--4-4-4-4--4-4-7-7--4-4-4-4--4-4-4-4--4-4-4-4--4-4-4-4--|
A|--2-2-2-2--2-2-2-2--2-2-2-2--2-2-5-5--4-4-4-4--4-4-4-4--4-4-4-4--4-4-4-4--|
D|--------------------------------------4-4-4-4--4-4-4-4--4-4-4-4--4-4-4-4--|

Chorus
e|--------------------------------------------------------------------------------------|
B|--------------------------------------------------------------------------------------|
G|--9-9-9-9--9-9-9-9--4-4-4-4--4-4-4-4--------------------------------------------------|
D|--9-9-9-9--9-9-9-9--4-4-4-4--4-4-4-4--4--4--4--2-4-2-4--4--4--4--4--4--2-4-2-4--4--4--|
A|--7-7-7-7--7-7-7-7--2-2-2-2--2-2-2-2--4--4--4--2-4-2-4--4--4--4--4--4--2-4-2-4--4--4--|
D|--------------------------------------4--4--4--2-4-2-4--4--4--4--4--4--2-4-2-4--4--4--|

Song Order:
Verse X 5
Pre-chorus X 1
Chorus X 2
Verse X 4
Pre-chorus X 1
Chorus X 7

enjoy!!!
Tap to rate this tab
# A B C D E F G H I J K L M N O P Q R S T U V W X Y Z