Song name
# A B C D E F G H I J K L M N O P Q R S T U V W X Y Z

Metric - Gold Guns Girls Acoustic tab

----------------------------------------------------------------------------
			     Gold Guns Girls - Metric
----------------------------------------------------------------------------
Tabbed by: Car vs. Driver  
Tuning: Standard

This is a fun song to play with on acoustic with all the open strings during
the verse.  Also, I randomly hit the open E string during the verse to give 
it some more low end feel.

For the intro on acoustic, I use the 14th fret on G as filler to brighten 
it up a bit.  That's not how they normally play it though.


Intro (also used as fill during various places in the song)
e|------------------|
B|------------------|
G|-----14-14-14-14--|
D|------------------|
A|-0-0-12-12-12-12--|
E|------------------| 8 times ... then play ...

e|-0-0-0-0--0-0-0-0--0-0-0-0--0-0-0-0--0-0-0-0--0-0-0-0--0-0-0-0--0-0-0-0-|
B|-5-5-5-5--5-5-5-5--5-5-5-5--5-5-5-5--5-5-5-5--5-5-5-5--5-5-5-5--5-5-5-5-|
G|-0-0-0-0--0-0-0-0--0-0-0-0--0-0-0-0--0-0-0-0--0-0-0-0--0-0-0-0--0-0-0-0-|
D|-7-7-7-7--7-7-7-7--7-7-7-7--7-7-7-7--7-7-7-7--7-7-7-7--7-7-7-7--7-7-7-7-|
A|-7-7-7-7--7-7-7-7--7-7-7-7--7-7-7-7--7-7-7-7--7-7-7-7--7-7-7-7--7-7-7-7-|
E|-x-x-x-x--x-x-x-x--x-x-x-x--x-x-x-x--x-x-x-x--x-x-x-x--x-x-x-x--x-x-x-x-|


Verse 1
e|-0-0-0-0--0-0-0-0--0-0-0-0--0-0-0-0--0-0-0-0--0-0-0-0--0-0-0-0--0-0-0-0-|
B|-1-1-1-1--1-1-1-1--1-1-1-1--1-1-1-1--3-3-3-3--3-3-3-3--3-3-3-3--3-3-3-3-|
G|-2-2-2-2--2-2-2-2--2-2-2-2--2-2-2-2--4-4-4-4--4-4-4-4--4-4-4-4--4-4-4-4-|
D|-3-3-3-3--3-3-3-3--3-3-3-3--3-3-3-3--5-5-5-5--5-5-5-5--5-5-5-5--5-5-5-5-|
A|-3-3-3-3--3-3-3-3--3-3-3-3--3-3-3-3--5-5-5-5--5-5-5-5--5-5-5-5--5-5-5-5-|
E|-x-x-x-x--x-x-x-x--x-x-x-x--x-x-x-x--x-x-x-x--x-x-x-x--x-x-x-x--x-x-x-x-|


e|-0-0-0-0--0-0-0-0--0-0-0-0--0-0-0-0--0-0-0-0--0-0-0-0--0-0-0-0--0-0-0-0-|
B|-5-5-5-5--5-5-5-5--5-5-5-5--5-5-5-5--5-5-5-5--5-5-5-5--5-5-5-5--5-5-5-5-|
G|-0-0-0-0--0-0-0-0--0-0-0-0--0-0-0-0--0-0-0-0--0-0-0-0--0-0-0-0--0-0-0-0-|
D|-7-7-7-7--7-7-7-7--7-7-7-7--7-7-7-7--7-7-7-7--7-7-7-7--7-7-7-7--7-7-7-7-|
A|-7-7-7-7--7-7-7-7--7-7-7-7--7-7-7-7--7-7-7-7--7-7-7-7--7-7-7-7--7-7-7-7-|
E|-x-x-x-x--x-x-x-x--x-x-x-x--x-x-x-x--x-x-x-x--x-x-x-x--x-x-x-x--x-x-x-x-|


Chorus
e|-1-1-1-1--1-1-1-1--1-1-1-1--1-1-1-1--3-3-3-3--3-3-3-3--3-3-3-3--3-3-3-3-|
B|-1-1-1-1--1-1-1-1--1-1-1-1--1-1-1-1--3-3-3-3--3-3-3-3--3-3-3-3--3-3-3-3-|
G|-2-2-2-2--2-2-2-2--2-2-2-2--2-2-2-2--4-4-4-4--4-4-4-4--4-4-4-4--4-4-4-4-|
D|-3-3-3-3--3-3-3-3--3-3-3-3--3-3-3-3--5-5-5-5--5-5-5-5--5-5-5-5--5-5-5-5-|
A|-3-3-3-3--3-3-3-3--3-3-3-3--3-3-3-3--5-5-5-5--5-5-5-5--5-5-5-5--5-5-5-5-|
E|-1-1-1-1--1-1-1-1--1-1-1-1--1-1-1-1--3-3-3-3--3-3-3-3--3-3-3-3--3-3-3-3-|

e|-1-1-1-1--1-1-1-1--1-1-1-1--1-1-1-1--3-3-3-3--3-3-3-3--3-3-3-3--3-3-3-3-|
B|-1-1-1-1--1-1-1-1--1-1-1-1--1-1-1-1--3-3-3-3--3-3-3-3--3-3-3-3--3-3-3-3-|
G|-2-2-2-2--2-2-2-2--2-2-2-2--2-2-2-2--4-4-4-4--4-4-4-4--4-4-4-4--4-4-4-4-|
D|-3-3-3-3--3-3-3-3--3-3-3-3--3-3-3-3--5-5-5-5--5-5-5-5--5-5-5-5--5-5-5-5-|
A|-3-3-3-3--3-3-3-3--3-3-3-3--3-3-3-3--5-5-5-5--5-5-5-5--5-5-5-5--5-5-5-5-|
E|-1-1-1-1--1-1-1-1--1-1-1-1--1-1-1-1--3-3-3-3--3-3-3-3--3-3-3-3--3-3-3-3-|

e|-0-0-0-0--0-0-0-0--0-0-0-0--0-0-0-0--0-0-0-0--0-0-0-0--0-0-0-0--0-0-0-0-|
B|-5-5-5-5--5-5-5-5--5-5-5-5--5-5-5-5--5-5-5-5--5-5-5-5--5-5-5-5--5-5-5-5-|
G|-0-0-0-0--0-0-0-0--0-0-0-0--0-0-0-0--0-0-0-0--0-0-0-0--0-0-0-0--0-0-0-0-|
D|-7-7-7-7--7-7-7-7--7-7-7-7--7-7-7-7--7-7-7-7--7-7-7-7--7-7-7-7--7-7-7-7-|
A|-7-7-7-7--7-7-7-7--7-7-7-7--7-7-7-7--7-7-7-7--7-7-7-7--7-7-7-7--7-7-7-7-|
E|-x-x-x-x--x-x-x-x--x-x-x-x--x-x-x-x--x-x-x-x--x-x-x-x--x-x-x-x--x-x-x-x-|


Bridge (on the album the full verse is strummed instead)
   (LR)~~~~~~~~~~~~~~(LR)~~~~~~~~~~~~~~(LR)~~~~~~~~~~~~~~(LR)~~~~~~~~~~~~~
e|-0-----------------0-----------------0-----------------0----------------|
B|-1-----------------1-----------------3-----------------3----------------|
G|-2-----------------2-----------------4-----------------4----------------|
D|-3-----------------3-----------------5-----------------5----------------|
A|-3-----------------3-----------------5-----------------5----------------|
E|-x-----------------x-----------------x-----------------x----------------|

e|-0-0-0-0--0-0-0-0--0-0-0-0--0-0-0-0--0-0-0-0--0-0-0-0--0-0-0-0--0-0-0-0-|
B|-5-5-5-5--5-5-5-5--5-5-5-5--5-5-5-5--5-5-5-5--5-5-5-5--5-5-5-5--5-5-5-5-|
G|-0-0-0-0--0-0-0-0--0-0-0-0--0-0-0-0--0-0-0-0--0-0-0-0--0-0-0-0--0-0-0-0-|
D|-7-7-7-7--7-7-7-7--7-7-7-7--7-7-7-7--7-7-7-7--7-7-7-7--7-7-7-7--7-7-7-7-|
A|-7-7-7-7--7-7-7-7--7-7-7-7--7-7-7-7--7-7-7-7--7-7-7-7--7-7-7-7--7-7-7-7-|
E|-x-x-x-x--x-x-x-x--x-x-x-x--x-x-x-x--x-x-x-x--x-x-x-x--x-x-x-x--x-x-x-x-|


Last Verse (After the Bridge)
e|-1-1-1-1--1-1-1-1--1-1-1-1--1-1-1-1--3-3-3-3--3-3-3-3--3-3-3-3--3-3-3-3-|
B|-1-1-1-1--1-1-1-1--1-1-1-1--1-1-1-1--3-3-3-3--3-3-3-3--3-3-3-3--3-3-3-3-|
G|-2-2-2-2--2-2-2-2--2-2-2-2--2-2-2-2--4-4-4-4--4-4-4-4--4-4-4-4--4-4-4-4-|
D|-3-3-3-3--3-3-3-3--3-3-3-3--3-3-3-3--5-5-5-5--5-5-5-5--5-5-5-5--5-5-5-5-|
A|-3-3-3-3--3-3-3-3--3-3-3-3--3-3-3-3--5-5-5-5--5-5-5-5--5-5-5-5--5-5-5-5-|
E|-1-1-1-1--1-1-1-1--1-1-1-1--1-1-1-1--3-3-3-3--3-3-3-3--3-3-3-3--3-3-3-3-|


e|-5-5-5-5--5-5-5-5--5-5-5-5--5-5-5-5--5-5-5-5--5-5-5-5--5-5-5-5--5-5-5-5-|
B|-5-5-5-5--5-5-5-5--5-5-5-5--5-5-5-5--5-5-5-5--5-5-5-5--5-5-5-5--5-5-5-5-|
G|-6-6-6-6--6-6-6-6--6-6-6-6--6-6-6-6--6-6-6-6--6-6-6-6--6-6-6-6--6-6-6-6-|
D|-7-7-7-7--7-7-7-7--7-7-7-7--7-7-7-7--7-7-7-7--7-7-7-7--7-7-7-7--7-7-7-7-|
A|-7-7-7-7--7-7-7-7--7-7-7-7--7-7-7-7--7-7-7-7--7-7-7-7--7-7-7-7--7-7-7-7-|
E|-5-5-5-5--5-5-5-5--5-5-5-5--5-5-5-5--5-5-5-5--5-5-5-5--5-5-5-5--5-5-5-5-|


************************************

| /   slide up
| \   slide down
| h   hammer-on
| p   pull-off
| ~   vibrato
| +   harmonic
| x   Mute note
| b   Bend
| pb  Pre-bend
| br  Bend release
| pbr Pre-bend release
| brb Bend release bend

************************************
Tap to rate this tab
# A B C D E F G H I J K L M N O P Q R S T U V W X Y Z