Song name
# A B C D E F G H I J K L M N O P Q R S T U V W X Y Z

Metric - Help Im Alive tab

-----------------------------------------------------------------------------
			     Help Iím Alive- Metric
-----------------------------------------------------------------------------
Tabbed by: Nate G
Email:gebhan26@muhs.edu

Tuning: standard
Intro
e|------------------------------------|
B|------------------------------------|
G|------------------------------------|
D|33333333-55555555-------------------|
A|11111111-33333333-55555555-88888888-|
E|------------------33333333-66666666-|

e|------------------------------------|
B|------------------------------------|
G|------------------------------------|
D|33333333-55555555-------------------|
A|11111111-33333333-55555555-88888888-|
E|------------------33333333-66666666-|

e|------------------------------------|
B|------------------------------------|
G|------------------------------------|
D|33333333-55555555-------------------|
A|11111111-33333333-55555555-88888888-|
E|------------------33333333-66666666-|

e|-------------------------------------------------------------------|
B|-------------------------------------------------------------------|
G|-------------------------------------------------------------------|
D|33333333-55555555--------------------------------------------------|
A|11111111-33333333-55555555-88888888-555555555555555555555555555555-|
E|------------------33333333-66666666-333333333333333333333333333333-|
Verse
e|-----------------------------------------------|
B|-----------------------------------------------|
G|-----------------------------------------------|
D|3333-8888-8888----------3333-------------------|
A|1111-6666-8888-55555555-1111-33333333-55555555-|
E|---------------33333333------11111111-33333333-|

e|---------------------------------------------------------------------|
B|---------------------------------------------------------------------|
G|---------------------------------------------------------------------|
D|3333-8888-8888----------3333-----------------------------------------|
A|1111-6666-8888-55555555-1111-33333333-555555555555555555555555555555-|
E|---------------33333333------11111111-333333333333333333333333333333-|
Refrain
e|-------------------|
B|-------------------|
G|-------------------|
D|-----10---------8--|
A|8888-8 10101010-6--|
E|6666---8 8 8 8 ----|

e|-------------------|
B|-------------------|
G|-------------------|
D|-----10---------8--|
A|8888-8 10101010-6--|
E|6666---8 8 8 8 ----|

e|-------------------|
B|-------------------|
G|-------------------|
D|-----10---------8--|
A|8888-8 10101010-6--|
E|6666---8 8 8 8 ----|

e|-------------------|
B|-------------------|
G|-------------------|
D|-----10---------8--|
A|8888-8 10101010-6--|
E|6666---8 8 8 8 ----|

e|-------------------|
B|-------------------|
G|-------------------|
D|-----10---------8--|
A|8888-8 10101010-6--|
E|6666---8 8 8 8 ----|

e|-------------------|
B|-------------------|
G|-------------------|
D|-----10---------8--|
A|8888-8 10101010-6--|
E|6666---8 8 8 8 ----|

e|-------------------|
B|-------------------|
G|-------------------|
D|-----10---------8--|
A|8888-8 10101010-6--|
E|6666---8 8 8 8 ----|

e|-------------------------------------------------|
B|-------------------------------------------------|
G|-------------------------------------------------|
D|-----10---------8--------------------------------|
A|8888-8 10101010-6-555555555555555555555555555555-|
E|6666---8 8 8 8 ---333333333333333333333333333333-|
Verse
e|-----------------------------------------------|
B|-----------------------------------------------|
G|-----------------------------------------------|
D|3333-8888-8888----------3333-------------------|
A|1111-6666-8888-55555555-1111-33333333-55555555-|
E|---------------33333333------11111111-33333333-|


e|---------------------------------------------------------------------|
B|---------------------------------------------------------------------|
G|---------------------------------------------------------------------|
D|3333-8888-8888----------3333-----------------------------------------|
A|1111-6666-8888-55555555-1111-33333333-555555555555555555555555555555-|
E|---------------33333333------11111111-333333333333333333333333333333-|
Refrain
e|-------------------|
B|-------------------|
G|-------------------|
D|-----10---------8--|
A|8888-8 10101010-6--|
E|6666---8 8 8 8 ----|

e|-------------------|
B|-------------------|
G|-------------------|
D|-----10---------8--|
A|8888-8 10101010-6--|
E|6666---8 8 8 8 ----|

e|-------------------|
B|-------------------|
G|-------------------|
D|-----10---------8--|
A|8888-8 10101010-6--|
E|6666---8 8 8 8 ----|

e|-------------------|
B|-------------------|
G|-------------------|
D|-----10---------8--|
A|8888-8 10101010-6--|
E|6666---8 8 8 8 ----|

e|-------------------|
B|-------------------|
G|-------------------|
D|-----10---------8--|
A|8888-8 10101010-6--|
E|6666---8 8 8 8 ----|

e|-------------------|
B|-------------------|
G|-------------------|
D|-----10---------8--|
A|8888-8 10101010-6--|
E|6666---8 8 8 8 ----|

e|-------------------|
B|-------------------|
G|-------------------|
D|-----10---------8--|
A|8888-8 10101010-6--|
E|6666---8 8 8 8 ----|

e|-------------------------------------------------|
B|-------------------------------------------------|
G|-------------------------------------------------|
D|-----10---------8--------------------------------|
A|8888-8 10101010-6-555555555555555555555555555555-|
E|6666---8 8 8 8 ---333333333333333333333333333333-|

e|-------------------------------|
B|-------------------------------|
G|-------------------------------|
D|-------------------------------|
A|555555555555555555555555555555-|
E|333333333333333333333333333333-|
Tap to rate this tab
# A B C D E F G H I J K L M N O P Q R S T U V W X Y Z