Metric - Black Sheep tab

Metric-Black Sheep/ Freddie

L.A Rai

Intro:

E-----------------------------------------------|
B-----------------------------------------------|
G-----------------------------------------------|
D-----------------------------------------------|
A-------7----7-----7------7---------------------|
E-----0----0----0------0------------------------|

(keep repeating!)


Verse:

E-------------------------------------------3----3----3----3-----|
B-------------------------------------------3----3----3----3-----|
G-------------------------------------------4----4----4----4-----|
D-------------------------------------------5----5----5----5-----|
A---7------7----7----7-----7----7-----------5----5----5----5-----|
E---0------0----0----0-----0----0-----------3----3----3----3-----|
 Hello again, friend of a friend, I knew you when
Our common goal was waiting for the world to end


E-----------------------------------------------------3---3---3---3---------|
B-5--3--------------5----3------------5--3------------3---3---3---3---------|
G---------5--4--------------5--4------------5---------4---4---4---4---------|
D-----------------------------------------------------5---5---5---5---------|
A-----------------------------------------------------5---5---5---5---------|
E-----------------------------------------------------3---3---3---3---------|
Now that the truth is just a rule that you can     bend
You crack the whip, shapeshifting trick, the past again

Chorus:

(just these two notes repetitively throughout)

E----------------------------------|
B---8---------7--------------------|
G----------------------------------|
D----------------------------------|
A----------------------------------|
E----------------------------------|

i'll send you my love on a wire
Lift you up, everytime, everyone, ooo, pulls away, ooo
From you

End of chorus:

E--------7-------7------7-------7------7-----7--------------------|
B--8-8----8--8-----8-----7-7----7-7----7--------------------------|
G-----------------------------------------------------------------|
D-----------------------------------------------------------------|
A-----------------------------------------------------------------|
E-----------------------------------------------------------------|

“You oooo”

Play Intro with added piece and slide at end:

E-----------9------7----------------|
B-----------9------7----------------|
G-----------------------------------|
D-----------------------------------|
A-----7-----------------------------|
E---0-------------------------------|


2nd Verse-

Got balls of steel, got an automobile, for a minimum wage
Got real estate, I'm buying it all up in outerspace
Now that the truth is just a rule that you can bend
You crack the whip, shapeshifting trick, the past again

(No guitar just bass in first two lines before G chord-feel free to substitute with some 
clapping :D)

Chorus-same

Solo @ end:


E----------------------------------------------------------------------------|
G-8-8-10-8--10/-12--12-12-12--10-12-10---------8-10-8--10/--12--12--10-------|
B---------------------------------------12--9--------------------------------|
D----------------------------------------------------------------------------|
A----------------------------------------------------------------------------|
E----------------------------------------------------------------------------|


E---12-10-----------------------|
B---------12-10-----------------|
G----------------12-12----------|
D-------------------------------|
A-------------------------------|
E-------------------------------|

E---------------------------------------------------------------------------|
G-8-8-10-8--10/-12--12-12-12--10-12-10---------8-10-8--10/--12--12-10--12---|
B--------------------------------------12--9--------------------------------|
D---------------------------------------------------------------------------|
A---------------------------------------------------------------------------|
E---------------------------------------------------------------------------|

E---10---------------------|
B--------12-10-------------|
G----------------12-12-----|
D--------------------------|
A--------------------------|
E--------------------------|
Tap to rate this tab
 
# A B C D E F G H I J K L M N O P Q R S T U V W X Y Z