Metric - Iou tab

Band:  Metric
Song:  Iou (solo)
Album: Old World Underground

   Main Solo - Played twice
e||------------------------------------------------------------------|
b||--------------10--12--10----9------10--9--------------------------|
g||------/11----------------11--------------12-11-9------/12-11-9-11-|
d||-/9-----------------------------------------------9---------------|
a||------------------------------------------------------------------|
E||------------------------------------------------------------------|

   First Ending
e||-----------------------|
b||-----------------------|
g||---9-11-12-11-9--------|
d||-12-------------12-11--|
a||-----------------------|
E||-----------------------|                                                  

   Second Ending (fade out)
e||------/9----------/9---|
b||-----------------------|
g||-----------------------|
d||-/12---------/12-------|
a||-----------------------|
E||-----------------------|

This is my first tab so please rate and comment, im sure its 100%
Just listen for rhythm.
MrDraGoOn
Tap to rate this tab
 
# A B C D E F G H I J K L M N O P Q R S T U V W X Y Z