Metric - Black Sheep tab

-------------------------------------------------------------------------------
                         BLACK SHEEP - Metric
-------------------------------------------------------------------------------
Tabbed by: Naglfar	

Tuning: EADGBe


 Intro

e|---------------------------------------------------------------------------|
B|---------------------------------------------------------------------------|
G|---------------------------------------------------------------------------|
D|---------------------------------------------------------------------------|
A|--12\-----7---7---7---7---7---7---7---7---7---7---7---7---7---7---7---7----|
E|--12\---0---0-------0-------0-------0---0---0-------0-------0-------0------|

e|---------------------------------------------------------------------------|
B|---------------------------------------------------------------------------|
G|---------------------------------------------------------------------------|
D|---------------------------------------------------------------------------|
A|-----7---7---7---7---7---7---7---7---7---7---7---7---7---7---7---7---------|
E|---0---0-------0-------0-------0---0---0-------0-------0-------0-----------|


 Verse

e|----------------------------------------------------------------------||
B|----------------------------------------------------------------------||
G|----------------------------------------------------------------------||
D|--------------------------------------------------5----5----5----5----|| x2
A|--------------------------------------------------5----5----5----5----||
E|--------------------------------------------------3----3----3----3----||

e|----------------------------------------------------------------------|
B|----5--3------------5--3------------5--3------------------------------|
G|------------5--4------------5--4------------5--4----------------------|
D|--------------------------------------------------5----5----5----5----|
A|--------------------------------------------------5----5----5----5----|
E|--------------------------------------------------3----3----3----3----|

e|----------------------------------------------------------------------|
B|----5--3------------5---3-----------5--3------------------------------|
G|------------5--4------------5--4------------5--4--4----4----4----4----|
D|--------------------------------------------------4----4----4----4----|
A|--------------------------------------------------2----2----2----2----|
E|----------------------------------------------------------------------|


 Chorus

e|----------------------------------------------------------------------||
B|----------------------------------------------------------------------||
G|----12--12--12--12--12--12--12--12--12--12--12--12--11--11--11--11----||
D|----------------------------------------------------------------------||
A|----------------------------------------------------------------------||
E|----------------------------------------------------------------------||
                                                                         | x2
e|----------------------------------------------------------------------||
B|----------------------------------------------------------------------||
G|----12--12--12--12--12--12--12--12--11--11--11--11--11--11--11--11----||
D|----------------------------------------------------------------------||
A|----------------------------------------------------------------------||
E|----------------------------------------------------------------------||
 
e|----------------------------------------------------------------------||
B|------------12----------12------12----------12----------12------12----||
G|----12--12------12--12------12------11--11------11--11------11--------|| x3
D|----------------------------------------------------------------------||
A|----------------------------------------------------------------------||
E|----------------------------------------------------------------------||

e|----------------------------------------------------------------------|
B|------------12----------12------12--12--12--12--12--12--12--12--------|
G|----12--12------12--12------12------11--11--11--11--11--11--12--------|
D|----------------------------------------------------------------------|
A|----------------------------------------------------------------------|
E|----------------------------------------------------------------------|


Intro again (the added notes in the song are from the keyboard I think)

e|----------------------------------------------------------------------|
B|----------------------------------------------------------------------|
G|----------------------------------------------------------------------|
D|----------------------------------------------------------------------|
A|-----7---7---7---7---7---7---7---7---7---7---7---7---7---7---7---7----|
E|---0---0-------0-------0-------0---0---0-------0-------0-------0------|

e|----------------------------------------------------------------------|
B|----------------------------------------------------------------------|
G|----------------------------------------------------------------------|
D|----------------------------------------------------------------------|
A|-----7---7---7---7---7---7---7---7---7---7---7---7---7---7---7---7----|
E|---0---0-------0-------0-------0---0---0-------0-------0-------0------|


 Verse

e|----------------------------------------------------------------------||
B|----------------------------------------------------------------------||
G|----------------------------------------------------------------------||
D|--------------------------------------------------5----5----5----5----|| x2
A|--------------------------------------------------5----5----5----5----||
E|--------------------------------------------------3----3----3----3----||

e|----------------------------------------------------------------------|
B|----5--3------------5--3------------5--3------------------------------|
G|------------5--4------------5--4------------5--4----------------------|
D|--------------------------------------------------5----5----5----5----|
A|--------------------------------------------------5----5----5----5----|
E|--------------------------------------------------3----3----3----3----|

e|----------------------------------------------------------------------|
B|----5--3------------5---3-----------5--3------------------------------|
G|------------5--4------------5--4------------5--4--4----4----4----4----|
D|--------------------------------------------------4----4----4----4----|
A|--------------------------------------------------2----2----2----2----|
E|----------------------------------------------------------------------|


 Chorus

e|----------------------------------------------------------------------||
B|----------------------------------------------------------------------||
G|----12--12--12--12--12--12--12--12--12--12--12--12--11--11--11--11----||
D|----------------------------------------------------------------------||
A|----------------------------------------------------------------------||
E|----------------------------------------------------------------------||
                                                                         | x4
e|----------------------------------------------------------------------||
B|----------------------------------------------------------------------||
G|----12--12--12--12--12--12--12--12--11--11--11--11--11--11--11--11----||
D|----------------------------------------------------------------------||
A|----------------------------------------------------------------------||
E|----------------------------------------------------------------------||
 
e|----------------------------------------------------------------------||
B|------------12----------12------12----------12----------12------12----||
G|----12--12------12--12------12------11--11------11--11------11--------|| x7
D|----------------------------------------------------------------------||
A|----------------------------------------------------------------------||
E|----------------------------------------------------------------------||

e|----------------------------------------------------------------------|
B|------------12----------12------12--12--12--12--12--12--12--12--------|
G|----12--12------12--12------12------12--12--12--12--12--12--12--------|
D|----------------------------------------------------------------------|
A|----------------------------------------------------------------------|
E|----------------------------------------------------------------------|


Solo

e|------------------------------------------------------------||
B|----8----8----10--8----10/12----12--12----10--12--10--------||
G|------------------------------------------------------12----||
D|------------------------------------------------------------||
A|------------------------------------------------------------||
E|------------------------------------------------------------||
                                                               |
e|--------------------------------------------10--------------||
B|---------8----10--8----10/12----12--10--12------12--10------||
G|----9---------------------------------------------------12--||
D|------------------------------------------------------------||
A|------------------------------------------------------------||
E|------------------------------------------------------------||
                                                               | x2
e|------------------------------------------------------------||
B|---------8----10--8----10/12----12--12----10--12--10--------||
G|----9-------------------------------------------------12----||
D|------------------------------------------------------------||
A|------------------------------------------------------------||
E|------------------------------------------------------------||
                                                               |
e|----------------------------------------12--10--------------||
B|---------8----10--8----10/12----12--10----------12--10------||
G|----9---------------------------------------------------12--||
D|------------------------------------------------------------||
A|------------------------------------------------------------||
E|------------------------------------------------------------||
Tap to rate this tab
 
# A B C D E F G H I J K L M N O P Q R S T U V W X Y Z