Song name
# A B C D E F G H I J K L M N O P Q R S T U V W X Y Z

Metric - Black Sheep tab

e-------------------------------------------------------------------|
b-------------------------------------------------------------------|
g-------------------------------------------------------------------|
d-------------------------------------------------------------------|
a-(/12)--7--7-7--7-7-7-7--7-7--7-7--7-7-7--7-7--7-7--7-7--7-7-------|
E-(/12)-0----0----0-0------0----0----0-0----0----0----0----0--------|

e-------------------------------------------------------------------|
b--------------------------5-3-----5-3-----5-3----------------------|
g------------------------------5-4-----5-4-----5--------------------|
d-5-5-5-5----------5-5-5-5------------------------5-5-5-5-----------|
a-5-5-5-5----------5-5-5-5------------------------5-5-5-5-----------|
E-7-7-7-7----------7-7-7-7------------------------7-7-7-7-----------|

e--------------------------------------------------------------------|
b-5-3-----5---3-----5-3----------------------------------------------|
g-----5-4-------5-4-----5--------------12-12-12-12-12-12-11-11-11-11-|
d--------------------------5-5-5-5-5---------------------------------|
a--------------------------5-5-5-5-5---------------------------------|
E--------------------------7-7-7-7-7---------------------------------|

e-------------------------------------------------------------------|
b---------------------------------------12----12----12--------------|
g-12-12-12-12-11-11-11-11-11-11---12-12----12----12----12-----------|
d-------------------------------------------------------------------|
a-------------------------------------------------------------------|
E-------------------------------------------------------------------|

e--------------------------------------------------------------------|
b-------12----12----12-----------12--12----12-----------12--12--12---|
g-11-11----11---11---11---12-12----12---12---12---11-11---11--11--11-|
d--------------------------------------------------------------------|
a--------------------------------------------------------------------|
E--------------------------------------------------------------------|

e-------------------------------------------------------------------|
b-------------------------------------------------------------------|
g--------------------0-------------0-----------0---------0-------0--|
d----------------7h8-----------7h8---------7h8-------7h8-----7h8----|
a-7-7-7-7-7-7-7--------7-7-7-7-------7-7-7-------7-7-------7--------|
E--0-0-0-0-0-0----------0-0-0---------0-0---------0-------0---------|

e--------------------------------------------------------------------|
b-----------------------------------------------5-3-----5-3-----5-3--|
g--------0--------0---------------------------------5-4-----5-4----5-|
d----7h8------7h8-----------5-5-5-5-----5-5-5-5----------------------|
a--7--------7---------------5-5-5-5-----5-5-5-5----------------------|
E-0--------0----------------7-7-7-7-----7-7-7-7----------------------|

e-------------------------------------------------------------------|
b---------5-3-----5--3-----5-3--------------------------------------|
g-------------5-4------5-4-----5------------------------------------|
d-5-5-5-5-------------------------5-5-5-5---------------------------|
a-5-5-5-5-------------------------5-5-5-5---------------------------|
E-7-7-7-7-------------------------7-7-7-7---------------------------|

e-------------------------------------------------------------------|
b-------------------------------------------------------------------|
g-12-12-12-12-11-11-11-11-12-12-12-12-11-11-11-11-12-12-12-11-11-11-|
d-------------------------------------------------------------------|
a-------------------------------------------------------------------|
E-------------------------------------------------------------------|

e|-------------------------------------------|
b|-------12---12---12----------12---12--12---|
g|-12-12----12---12--12--11-11----11--11--11-|
d|-------------------------------------------|
a|-------------------------------------------|
E|-------------------------------------------|

e|----------------------------------------------------12-10----------|
b|-8--8-10-8-10-12-12-10-12-10------8-10-8--10-12-12--------12-10----|
g|-----------------------------12-9-------------------------------12-|
d|-------------------------------------------------------------------|
a|-------------------------------------------------------------------|
E|-------------------------------------------------------------------|

e-----------------------------------------------10----------|
b-8-10-8-10-12-12-10-12-10------8-10-8-10-12-12----12-10----|
g--------------------------12-9--------------------------12-|
d-----------------------------------------------------------| x2
a-----------------------------------------------------------|
E-----------------------------------------------------------|

this is pretty much it but I would listen to the song while you see this tab because it 
will make it way easier so yea hopefully this helped you guys.
Tap to rate this tab
 
# A B C D E F G H I J K L M N O P Q R S T U V W X Y Z