Song name
# A B C D E F G H I J K L M N O P Q R S T U V W X Y Z

Metric - Empty tab

Tuning: DBEGBE (Drop D tuning with the 4th and 5th strings tuned up one whole step)

The tuning is strange, but I'm almost certain this is how it is played on the album and
live (to get the notes to ring out in the same way). It also happens to be a lot easier
to play. You can figure out the song structure (and how to play noisy solo) by yourself. 
The main thing I wanted to correct was all the tabs that either don't hit the right notes
in the intro/verse and make the part harder than it needs to be.

(Intro/Outro pt.One)
e|--------------------------------------------------------------------------|
B|--------------------------------------------------------------------------|
G|--------------------------------------------------------------------------|
E|------5--------3--------5---------7--------2--------2--------2--------0---|
B|----0---0----0---0----0---0-----0---0----0---0----0---0----0---0----0---0-|
D|--5--------5--------5--------/7--------2--------2--------2--------2-------|

(Intro/Outro pt.Two)
The bass note here, as far as I can tell, is played by the bass. But there are two ways
of doing it all on the guitar. One way is awkward (a huge stretch from the 6th to the
5th string), the other doesn't sound right (alternating the notes on the 5th string). 
The simplified version shifts the notes on the 10th and 12th frets to the 1st and 3rd 
frets on
the next string up).


Play this 3x
e|--------------------------------------------------------------------|
B|--------------------------------------------------------------------|
G|--------------------------------------------------------------------|
E|-----0-------0--------0-------0--------0-------0--------0-------0---|
B|---5---5---5---5----5---5---5---5----7---7---7---7----7---7---7---7-|
D|-10------10------10-------10-------12------12------12------12-------|

Followed by this part:
e|---------------------------------------|
B|---------------------------------------|
G|-----0---0----0---0----0---0----0---0--|
E|-------0--------0--------0--------0----|
B|---5--------5--------5--------5--------|
D|---------------------------------------|



(Chorus): Not perfectly accurate, but pretty damn close. Again, there is probably a
thing where the guitar alternates with the bass... but, eh
e|-------------------------------------|
B|-------------------------------------|
G|-------------------------------------|
E|-------------------------------------|
B|--1-1-1-1--1-1-1-1--1-1-1-1--1-1-1-1-|
D|--3-3-0-2--3-3-0-2--3-3-0-2--3-3-0-2-|


e|-------------------------------------|
B|-------------------------------------|
G|-------------------------------------|
E|--5-5--5/8--8----8\3-3--3/8--8-------|
B|--5-5--5/8--8----8\3-3--3/8--8-------|
D|--7-7--7/10-10--10\5-5--5/10-10------|
Tap to rate this tab
# A B C D E F G H I J K L M N O P Q R S T U V W X Y Z