Song name
# A B C D E F G H I J K L M N O P Q R S T U V W X Y Z

Metric - Empty tab

-----------------------------------------------------------------
EMPTY - Metric
-----------------------------------------------------------------
Tabbed by: Neno
Email:nevenprostran@gmail.com


The other tabs have the correct harmony and rhythm but the chord voicing is slightly different. 
The only way to correctly duplicate the track is to use this tuning. Also, this is how they
play it live.


Tuning:Low to High - DGDEBe


INTRO/VERSE - Part 1

e|---------------------------------------------------|
B|---------------------------------------------------|
E|-------5------------3------------5------------7----|
D|----0-----0------0-----0------0-----0------0-----0-|
G|---------------------------------------------------|
D|-5------------5------------5-----------/7----------|

e|---------------------------------------------------|
B|---------------------------------------------------|
E|-------2------------2------------2------------0----|
D|----0-----0------0-----0------0-----0------0-----0-|  x4 
G|---------------------------------------------------|
D|-2------------2------------2------------2----------|


VERSE - Part 2

e|---------------------------------------------------|
B|---------------------------------------------------|
E|-------0------------0------------0------------0----|
D|----5-----5------5-----5------5-----5------5-----5-|
G|-5------------5------------5------------5----------|
D|---------------------------------------------------|

e|---------------------------------------------------|
B|---------------------------------------------------|
E|-------0------------0------------0------------0----|
D|----7-----7------7-----7------7-----7------7-----7-|
G|-7------------7------------7------------7----------|
D|---------------------------------------------------|

e|---------------------------------------------------|
B|---------------------------------------------------|
E|-------0------------0------------0------------0----|
D|----5-----5------5-----5------5-----5------5-----5-|
G|-5------------5------------5------------5----------|
D|---------------------------------------------------|

First Ending

e|---------------------------------------------------|
B|---------------------------------------------------| 
E|-------0------------0------------0------------0----| Repeat Part 2 but using the Second Ending
D|----3-----3------3-----3------3-----3------3-----3-| 
G|-4------------4------------4------------4----------|  
D|---------------------------------------------------|

Second Ending

e|---------------------------------------------------|---|
B|---------------------------------------------------|---|
E|-------0------------0------------0------------0----|---|
D|----8-----8------8-----8------8-----8------8-----8-|---|
G|-9------------9------------9------------9----------|-9-|
D|---------------------------------------------------|---|



**Repeat the whole intro/verse  Section**



CHORUS

e|----------------------------------------------12--12-|
B|----------------------------------------------12--12-|
E|----------------------------------------------12--12-|
D|-----------------------------------------------------|
G|-5--5---------5--5---------5--5---------5--5---------|
D|-3--3--0--2---3--3--0--2---3--3--0--2---3--3---------|

e|-----------------------------------------------------|
B|-----------------------------------------------------|
E|-----------------------------------------------------|
D|-----------------------------------------------------| x 14 (I think)
G|-9--9----9--/12--12--12---\7--7----7--/12--12--12----|
D|-7--7----7--/10--10--10---\5--5----5--/10--10--10----|


CHORUS - Fill (tremolo picking and slide, 8 beats total)

e|-0////////////////////////////////////////////////22-|
B|-0////////////////////////////////////////////////22-|
E|-----------------------------------------------------|
D|-----------------------------------------------------|
G|-----------------------------------------------------|
D|-----------------------------------------------------|


SOLO:

As mentioned  in one of the other tabs, the solo beings with essentially random 
bending and picking
of the first string 12th fret with some other notes. It's basically E Minor 
pentatonic.Pentatonic boxes 
are different in this song because of the tuning, only the E and B strings remain 
untouched so its 
easiest to just play the solo on these 2 strings :) It stays between the 10th and 
19th frets pretty much
but here are all the possible notes for your soloing shenanigans:

e|--0---3---5---7---10---12---15---17---19---22-|
B|--0---3---5---8---10---12---15---17---20---22-|
E|----------------------------------------------| (3rd string = same notes as 1st string)
D|----------------------------------------------|
G|----------------------------------------------|
D|----------------------------------------------|



**Repeat the Intro/Verse section**


FIN.



| /  slide up
| \  slide down
| h  hammer-on
| p  pull-off
| ~  vibrato
| +  harmonic
| x  Mute note
Tap to rate this tab
# A B C D E F G H I J K L M N O P Q R S T U V W X Y Z