Song name
# A B C D E F G H I J K L M N O P Q R S T U V W X Y Z

Metric - The Police And The Private tab

I tried to tab this out on guitar.  I know the Chorus isn't 100 percent correct 
but it sounds alright when you play it along with the song.  

Verse
e|-----------------|-----------------|-----------------|-----------------|
b|-----------------|-----------------|-----------------|-----------------|
g|-----------------|-----------------|-----------------|-----------------|
d|-----------3---5-|---5-3-----3-----|---0-1---1-3---0-|---0-1---1-3---1-|
a|-3-5-6-3-6---3---|-0-----0-6---0-5-|-1-----1-----1---|-1-----1-----1---|
e|-----------------|-----------------|-----------------|-----------------|

e|-----------------|-----------------|-----------------|-----------------|
b|-----------------|-----------------|-----------------|-----------------|
g|-----------------|-----------------|---------5-------|---3---2---0---0-|
d|-----------3---5-|---5-3-----3---4-|---4-7-----8---7-|-----------------|
a|-3-5-6-3-6---3---|-0-----0-6---0---|-5-----5-----5---|-----------------|
e|-----------------|-----------------|-----------------|-3---3---3---3---|

Pre chorus 

e|-----------------|-----------------|-----------------|-----------------|
b|-----------------|-----------------|-----------------|-----------------|
g|---0-2---3-2---0-|---0-2---3-2---0-|---0-2---3-2---0-|-----------------|
d|-1-----1-----1---|-----------------|-1-----1-----1---|-0---------------|
a|-----------------|-----------------|-----------------|-----------------|
e|-----------------|-3------3----3---|-----------------|-----------------|

Chorus

e|-----------------|-----------------|-----------------|-----------------|      
b|-----------------|-----------------|-----------------|-----------------|
g|---3-2---2-0---3-|---3-2---2-0---0-|---3-2---2-0---3-|---3-2---2-0---0-|
d|-1-----1-----1---|-----------------|-----------------|-1-----1-----1---|
a|-----------------|-----------------|-1-----1-----1---|-----------------|
e|-----------------|-3------3----3---|-----------------|-----------------|
                                                                       x4

Verse2
e|-----------------|-----------------|-----------------|-----------------|
b|-----------------|-----------------|-----------------|-----------------|
g|-----------------|-----------------|-----------------|-----------------|
d|-----------3---5-|---5-3-----3-----|---0-1---1-3---0-|---0-1---1-3---1-|
a|-3-5-6-3-6---3---|-0-----0-6---0-5-|-1-----1-----1---|-1-----1-----1---|
e|-----------------|-----------------|-----------------|-----------------|

                                                                       x3

e|-----------------|-----------------|-----------------|-----------------|
b|-----------------|-----------------|-----------------|-----------------|
g|-----------------|-----------------|---------5-------|---3---2---0---0-|
d|-----------3---5-|---5-3-----3---4-|---4-7-----8---7-|-----------------|
a|-3-5-6-3-6---3---|-0-----0-6---0---|-5-----5-----5---|-----------------|
e|-----------------|-----------------|-----------------|-3---3---3---3---|

Pre chorus 2

e|-----------------|-----------------|-----------------|-----------------|
b|-----------------|-----------------|-----------------|-----------------|
g|---0-2---3-2---0-|---0-2---3-2---0-|---0-2---3-2---0-|---0-2---3-2---0-|
d|-1-----1-----1---|-----------------|-1-----1-----1---|-----------------|
a|-----------------|-----------------|-----------------|-----------------|
e|-----------------|-3------3----3---|-----------------|-3------3----3---|

e|-----------------|-----------------|-----------------|-----------------|
b|-----------------|-----------------|-----------------|-----------------|
g|---0-2---3-2---0-|---0-2---3-2---0-|---0-2---3-2---0-|-----------------|
d|-1-----1-----1---|-----------------|-1-----1-----1---|-0---------------|
a|-----------------|-----------------|-----------------|-----------------|
e|-----------------|-3------3----3---|-----------------|-----------------|

Chorus 2

e|-----------------|-----------------|-----------------|-----------------|      
b|-----------------|-----------------|-----------------|-----------------|
g|---3-2---2-0---3-|---3-2---2-0---0-|---3-2---2-0---3-|---3-2---2-0---0-|
d|-1-----1-----1---|-----------------|-----------------|-1-----1-----1---|
a|-----------------|-----------------|-1-----1-----1---|-----------------|
e|-----------------|-3------3----3---|-----------------|-----------------|
                                                       until end
Tap to rate this tab
# A B C D E F G H I J K L M N O P Q R S T U V W X Y Z