Song name
# A B C D E F G H I J K L M N O P Q R S T U V W X Y Z

Metric - Glass Ceiling tab

Artist: Metric
Song: Glass Ceiling
Tabbed by: karlh07
Email: karlh07@gmail.com

Intro
e--------------------------------------------------|
B--------------------------------------------------|
G--------------------------------------------------|
D--------------------------------------------------|
A---------------------------10-9--8-8-8-6h7--------|
E---0--0-5-4-3--3-10-9-8--8-----------------8/0----|

e--------------------------------------------------|
B--------------------------------------------------|
G---------------------------------9-7-9------------|
D--------------------------------------------------|
A---------------------------10-9-------------------|
E---0--0-5-4-3--3-10-9-8--8------------------------|

Verse x4
e--------------------------------------------------|
B--------------------------------------------------|
G--------------------------------------------------|
D--------------------------------------------------|
A---------------------------10-9--8-8-8-6h7--------|
E---0--0-5-4-3--3-10-9-8--8-----------------8/0----|
(There are some variations on the last bit, similar to the second riff in the intro.)

On the last one:
e---------------------------------x-----------------|
B---------------------------------x-----------------|
G---------------------------------x-----------------|
D---------------------------------x-----------------|
A---------------------------10-9--x-----------------|
E---0--0-5-4-3--3-10-9-8--8-------x-----------------|
x = Palm mute an E bar chord 7x

1st Prechorus/Chorus
E A E A G C E A E A E A G C G C A

2x
e--------------------------------------------------|
B--------------------------------------------------|
G----------------------------------9-7-9-7-9-7-9---|
D--------------------------------------------------|
A---------------------------10-9-------------------|
E---0--0-5-4-3--3-10-9-8--8------------------------|

Verse 4x

2nd Chorus
E A E A G C E A E A E A G C E A E A E A G C

e--------------------------------------------------|
B--------------------------------------------------|
G----------------------------------9-7-9-7-9-7-9---|
D--------------------------------------------------|
A---------------------------10-9-------------------|
E---0--0-5-4-3--3-10-9-8--8------------------------|

Verse
Tap to rate this tab
# A B C D E F G H I J K L M N O P Q R S T U V W X Y Z