Guitaretab - guitar tabs
Song name
# A B C D E F G H I J K L M N O P Q R S T U V W X Y Z

Metric - Raw Sugar tab

-------------------------------------------------------------------------------
			     Raw Sugar - Metric
-------------------------------------------------------------------------------
Tabbed by: Dan Williams (the-deftone)
Email:danwilliams.1@hotmail.com

Tuning:Standard
   
This is my 1st EVER tab,email about any corrections you have, hope you like! :)

Intro -      


Am     E       C
e|-----------------------------------| 
B|-1--------------1------------------|
G|-2------1--------------------------|
D|-2------2-------2-------6--------8-|
A|--------2-------3-------6--------8-|
E|------------------------4--------6-|




   Am     E       C
e|------------------------------------------| 
B|-1--------------1-------------------------|
G|-2------1---------------------------------|
D|-2------2-------2-------6--------8-------6|
A|--------2-------3-------6--------8-------6|
E|------------------------4--------6-------4|



Verse -

This is just the timing and rhythm I use, listen to the song to get the timing.


   Am                    E                 C
e|--------------------------------------------------------------------------| 
B|-1-1---1-1-1---1-----------------------------1-1---1-1-1---1--------------|
G|-2-2---2-2-2---2-------1-1---1-1-1---1------------------------------------|
D|-2-2---2-2-2---2-------2-2---2-2-2---2-------2-2---2-2-2---2--------------|
A|-----------------------2-2---2-2-2---2-------3-3---3-3-3---3--------------|
E|--------------------------------------------------------------------------|



e|------------------------------------------------------------------------|
B|------------------------------------------------------------------------|
G|------------------------------------------------------------------------|
D|---4-4--4-/-6--6-6------------------------------------------------------|
A|---6-6--6-/-8--8-8------------------------------------------------------|
E|---6-6--6-/-8--8-8------------------------------------------------------|



Pre-chorus

[ Tab from: http://www.guitaretab.com/m/metric/71647.html ]
 Am                    E                   C
e|------------------------------------------------------------------------| 
B|-1-1-1-1-1-1-1-1-------------------------1-1-1-1-1-1-1-1----------------|
G|-2-2-2-2-2-2-2-2-----1-1-1-1-1-1-1-1------------------------------------|
D|-2-2-2-2-2-2-2-2-----2-2-2-2-2-2-2-2-----2-2-2-2-2-2-2-2----------------|
A|---------------------2-2-2-2-2-2-2-2-----3-3-3-3-3-3-3-3----------------|
E|------------------------------------------------------------------------|


e|------------------------------------------------------------------------|
B|------------------------------------------------------------------------|
G|------------------------------------------------------------------------|
D|-4-4-4-4-/-6--6---------------------------------------------------------|
A|-6-6-6-6-/-8--8---------------------------------------------------------|
E|-6-6-6-6-/-8--8---------------------------------------------------------|




Chorus - 

e|------------------------------------------------------------------------|
B|------------------------------------------------------------------------|
G|------------------------------------------------------------------------|
D|-10-10-10-10-10-10-10-10----8-8-8-8-8-8-8-8----6-6-6-6-6-6-6-6----------|
A|-10-10-10-10-10-10-10-10----8-8-8-8-8-8-8-8----6-6-6-6-6-6-6-6----------|
E|-8--8--8--8--8--8--8--8-----6-6-6-6-6-6-6-6----4-4-4-4-4-4-4-4----------|

e|------------------------------------------------------------------------|
B|------------------------------------------------------------------------|
G|------------------------------------------------------------------------|
D|-4-4-4-4-/--8--8--------------------------------------------------------|
A|-4-4-4-4-/--8--8--------------------------------------------------------|
E|-2-2-2-2-/--6--6--------------------------------------------------------|


Interlude- 



         Am              E                 C
e|-----------------------------------------------------------------------| 
B|-------1-------1-------------------------1---------2-------------------|
G|-------2-------2-------1-------1---------------------------------------|
D|-------2-------2-------2-------2---------2---------2---6-6---6--8-8---6|
A|-0-0----0-0------------2-------2---3-3---3---3-3---3---6-6---6--8-8---6|
E|-----------------0-0-----0-0---------------------------4-4---4--6-6---4|







| /  slide up
| \  slide down
| h  hammer-on
| p  pull-off
| ~  vibrato
| +  harmonic
| x  Mute note
===============================================================================
Related for Raw Sugar tab
×
Raw Sugar