Song name
# A B C D E F G H I J K L M N O P Q R S T U V W X Y Z

Metric - Dead Disco tab

----------------------------------------------------------------------------
			     DEAD DISCO - Metric
----------------------------------------------------------------------------
Tabbed by: Madison Wikston
Email: madness_225@hotmail.com

Tuning: Normal

This is the first song I’ve ever tabbed on guitar, so it probably has a couple mistakes.
sounds to me like there is something wrong with the 1st solo, but I think the rest is
accurate. If you know how to correct any of my mistakes, please feel free to email me. I 
really surprised that I couldn’t find a good tab for it. It’s a pretty easy song, so
fun with it!

Make sure if you’re playing it on an electric guitar to use some gain.

INTRO:
e|-11--8--11--8--11-8--11-8---|11-8--11-8--11-8--11-8----------------------|
B|----9-----9------9-----9----|--9-----9-----9-----9-----------------------|
G|------8------8-----8-----8--|----8-----8-----8-----8---------------------|
D|----------------------------|--------------------------------------------|
A|----------------------------|--------------------------------------------|
E|----------------------------|--------------------------------------------|

(The verse music actually starts half way through the intro, and if you have a 2nd
playing with you in like a band or whatever, than you would probably want to put that in
too. So you would actually start the verse music after the break I put in the intro, and 
it would last 2 more times, so x7 instead of x5 as I have showed below.)

VERSE: (x5)
e|-------------------------------------------------------------------------|
B|-------------------------------------------------------------------------|
G|-------------------------------------------------------------------------|
D|-----------------------------6-6--6-6-6--6------------6------------------|
A|---------------6-6--6-6-6--6---------------8-8--8-6-8---8----------------|
E|-8-8--8-8-8--8-----------------------------------------------------------|

CHORUS: (x4)
e|-------------------------------------------------------------------------|
B|-------------------------------------------------------------------------|
G|-------------------------------------------------------------------------|
D|--------------------------------10--10—-10--10--10--10--10--10-----------|
A|-10--10--10--10--10--10--10--10—-8--8----8---8---8---8---8--8------------|
E|-8---8----8---8---8---8---8--8-------------------------------------------|

e|-------------------------------------------------------------------------|
B|-------------------------------------------------------------------------|
G|-------------------------------------------------------------------------|
D|-8-8-8-8-8-8-8-8--10--10--10--10--10--10--10--10-------------------------|
A|-6-6-6-6-6-6-6-6--8----8---8---8---8---8---8---8-------------------------|
E|-------------------------------------------------------------------------|

SOLO 1:
e|-------------------------------------------------------------------------|
B|-------------------------------------------------------------------------|
G|-12-12-10-15-15-13-12-12-10-12-11-12-11\10-12-12-10-15-15-13-12-12-10-12-|
D|-------------------------------------------------------------------------|
A|-------------------------------------------------------------------------|
E|-------------------------------------------------------------------------|

VERSE x2 and CHORUS x4

SOLO 2:
e|-------------------------------------------------------------------------|
B|-------------------------------------------------------------------------|
G|-------------------------------------------------------------------------|
D|-13--12--13--10--13--12--13----13--12--13---13--15--13-------------------|
A|----------------------10-------------------------------------------------|
E|-------------------------------------------------------------------------|

e|-------------------------------------------------------------------------|
B|-------------------------------------------------------------------------|
G|-------------------------------------------------------------------------|
D|-13--12--13--10--13--12--13----13--12--13---13-15-17-13-15---------------|
A|----------------------------10-------------------------------------------|
E|-------------------------------------------------------------------------|

e|-------------------------------------------------------------------------|
B|-------------------------------------------------------------------------|
G|-------------------------------------------------------------------------|
D|---12--13--10--13--12--13----13--12--13---13--15--13---------------------|
A|--------------------------10---------------------------------------------|
E|-------------------------------------------------------------------------|

e|-------------------------------------------------------------------------|
B|-------------------------------------------------------------------------|
G|-------------------------------------------------------------------------|
D|---12--13--10--13--12--13----13--12--13---13--15--13---------------------|
A|--------------------------10---------------------------------------------|
E|-------------------------------------------------------------------------|

CHORUS x3 (but you would sing that “I know you tried to change” part)

FINAL SLIGHTLY CHANGED CHORUS THING:
e|-------------------------------------------------------------------------|
B|-------------------------------------------------------------------------|
G|-------------------------------------------------------------------------|
D|--------------------------------10--10—-10--10--10--10--10--10-----------|
A|-10--10--10--10--10--10--10--10—-8--8----8---8---8---8---8--8------------|
E|-8---8----8---8---8---8---8--8-------------------------------------------|

e|-------------------------------------------------------------------------|
B|-------------------------------------------------------------------------|
G|-------------------------------------------------------------------------|
D|-8-8-8-8-8-8-8-8--10-----------------------------------------------------|
A|-6-6-6-6-6-6-6-6--8------------------------------------------------------|
E|-------------------------------------------------------------------------|

(HOLD THE LAST POWER CHORD)

| /  slide up
| \  slide down
| h  hammer-on
| p  pull-off
| ~  vibrato
| +  harmonic
| x  Mute note
============================================================================
Tap to rate this tab
# A B C D E F G H I J K L M N O P Q R S T U V W X Y Z