Song name
# A B C D E F G H I J K L M N O P Q R S T U V W X Y Z

Metric - List tab

Verse 1
e|--------111111--------------------|
B|----------------1111111-----------|
G|-22222-------------------000000---| 6x
D|----------------------------------|
A|----------------------------------|
E|----------------------------------|

Verse 2
e|---------------------------------------------|
B|---------------------------------------------|
G|-----------9--9--9-------5--5--5-------------| 2x
D|--7-7-7----9--9--9-------5--5--5----5-5-5----|
A|--7-7-7----7--7--7-------3--3--3----5-5-5----|
E|--5-5-5--- -------------------------3-3-3----|

Verse 3
e|--------111111--------------------|
B|----------------1111111-----------|
G|-22222-------------------000000---| 2x
D|----------------------------------|
A|----------------------------------|
E|----------------------------------|

Verse 4
e|---------------------------------------------|
B|---------------------------------------------|
G|-----------9--9--9-------5--5--5-------------| 2x
D|--7-7-7----9--9--9-------5--5--5----5-5-5----|
A|--7-7-7----7--7--7-------3--3--3----5-5-5----|
E|--5-5-5--- -------------------------3-3-3----|

Verse 5
e|--------111111--------------------|
B|----------------1111111-----------|
G|-22222-------------------000000---| 2x
D|----------------------------------|
A|----------------------------------|
E|----------------------------------|

Verse 6
e|---------------------------------------------|
B|---------------------------------------------|
G|-----------9--9--9-------5--5--5-------------| 2x
D|--7-7-7----9--9--9-------5--5--5----5-5-5----|
A|--7-7-7----7--7--7-------3--3--3----5-5-5----|
E|--5-5-5--- -------------------------3-3-3----|

Verse 7
e|--------111111--------------------|
B|----------------1111111-----------|
G|-22222-------------------000000---| 2x
D|----------------------------------|
A|----------------------------------|
E|----------------------------------|

Verse 8
e|---------------------------------------------|
B|---------------------------------------------|
G|-----------9--9--9-------5--5--5-------------| 2x
D|--7-7-7----9--9--9-------5--5--5----5-5-5----|
A|--7-7-7----7--7--7-------3--3--3----5-5-5----|
E|--5-5-5--- -------------------------3-3-3----|

Verse 9
e|---------------------------------------------|
B|---------------------------------------------|
G|-----------9--9--9-------5--5--5-------------| 2x - Palm-muted
D|--7-7-7----9--9--9-------5--5--5----5-5-5----|
A|--7-7-7----7--7--7-------3--3--3----5-5-5----|
E|--5-5-5--- -------------------------3-3-3----|

Verse 10
e|---------------------------------------------|
B|---------------------------------------------|
G|-----------9--9--9-------5--5--5-------------| 2x
D|--7-7-7----9--9--9-------5--5--5----5-5-5----|
A|--7-7-7----7--7--7-------3--3--3----5-5-5----|
E|--5-5-5--- -------------------------3-3-3----|

Verse 11
e|--------111111--------------------|
B|----------------1111111-----------|
G|-22222-------------------000000---| 2x
D|----------------------------------|
A|----------------------------------|
E|----------------------------------|

Verse 12
e|---------------------------------------------|
B|---------------------------------------------|
G|-----------9--9--9-------5--5--5-------------| 2x
D|--7-7-7----9--9--9-------5--5--5----5-5-5----|
A|--7-7-7----7--7--7-------3--3--3----5-5-5----|
E|--5-5-5--- -------------------------3-3-3----|

Ending 13
e|---------------------------------------------|
B|---------------------------------------------|
G|-----------9--9--9-------5--5--5-------------| 2x
D|--7-7-7----9--9--9-------5--5--5----5-5-5----|
A|--7-7-7----7--7--7-------3--3--3----5-5-5----|
E|--5-5-5--- -------------------------3-3-3----|
Tap to rate this tab
# A B C D E F G H I J K L M N O P Q R S T U V W X Y Z