Song name
# A B C D E F G H I J K L M N O P Q R S T U V W X Y Z

Metric - Calculation tab

-------------------------------------------------------------------|
------------------------------------------------------1--------3---|
-------5-------------4-------2------5---7---4-2-5---2---2----2---5-|
---5-------5-3-5---5---5---3---3------------------3--------3-------|
-3---3---3-------5-------3--------3---3---3------------------------|
-------------------------------------------------------------------|

-------------------------------------------------------------------|
------------------------------------------------------1--------3-5-|
-------5-------------4-------2------5---7---4-2-5---2---2----2-----|
---5-------5-3-5---5---5---3---3------------------3--------3-------|
-3---3---3-------5-------3--------3---3---3------------------------|
-------------------------------------------------------------------|
Tap to rate this tab
# A B C D E F G H I J K L M N O P Q R S T U V W X Y Z