Song name
# A B C D E F G H I J K L M N O P Q R S T U V W X Y Z

Metro Riots - Small Faces tab

www.metroriots.com
________________
This is my first tab, sorry for mistakes..
Listen to the song to figure song structure, it is quite simple and fun to play along 
:)

Riff #A
E--------------------------|
B--------------------------|
G----7--9-9-9--12--9-9-9---|
D----7--9-9-9--12--9-9-9---|
A----5--7-7-7--10--7-7-7---|
E--------------------------|

Riff #B
E--------------------|
B--------------------|
G--------------------|
D----9-9-9-9--7777---|
A----9-9-9-9--7777---|
E----7-7-7-7--5555---|

Riff #C
E-----------------------------------------------|
B-----------------------------------------------|
G-----------------------------------------------|
D----9-9-9-9---777777---9-9-9-9---777777777777--|
A----9-9-9-9---777777---9-9-9-9---777777777777--|
E----7-7-7-7---555555---7-7-7-7---555555555555--|

Riff #D
E--------------------------------------|
B--------------------------------------|
G----9--9--9--S-14-14-14-14-14-14------|
D----9--9--9--S-14-14-14-14-14-14------|
A----7--7--7--S-12-12-12-12-12-12------|
E--------------------------------------|

Solo:
Not sure about the solo, but you can throw in your own improvisation to make it sound 
The solo is played at the end of the song as second guitar, main riff #A is played all the 
as backup. Mix up some distortion, possible a wah-pedal and throw in some cool riffs at the end.

Have fun, hope this helped.
_______________
S= Slide
Tap to rate this tab
 
# A B C D E F G H I J K L M N O P Q R S T U V W X Y Z