Song name
# A B C D E F G H I J K L M N O P Q R S T U V W X Y Z

Metro Station - Kelsey Acoustic tab

----------------------------------------------------------------------------
                             KELSEY - METRO STATION
----------------------------------------------------------------------------

Tabbed by:Airin08
Email:airin_2008@yahoo.com

Tuning:STANDARD EADGBe

Guitar 1 - Rhythm
Guitar 2 - Lead

Hey this is my first tab so try not to be so critique. I tabbed this song out for two
It sounds best acoustically. Some parts of the song, guitar 2 plays some of the chords
1 would play. it may seem confusing but if you listen to the song, you should get it. 
please!!!


Intro Guitar 1 (0:00)
e|-----------------------------------------|
B|-----------1-1-1-1--1-1-1-1--------------|
G|--2-2-2-2--0-0-0-0--2-2-2-2--4-4-4-4-----| X4
D|--3-3-3-3--2-2-2-2--2-2-2-2--5-5-5-5-----|
A|--1-1-1-1--3-3-3-3--0-0-0-0--5-5-5-5-----|
E|--1-1-1-1--0-0-0-0--0-0-0-0--3-3-3-3-----|


Verse Pt. 1 Guitar 2 (0:32) at this point the song kicks up the tempo so play the same
but with a strumming pattern to match the beat.

e-----------------12----------13/15-13-12-10-12/13-12-10-----|
B--10-13-10-13-10----10-13-10----------------------------13--|
G------------------------------------------------------------| X2
D------------------------------------------------------------|
A------------------------------------------------------------|
E------------------------------------------------------------|

Guitar 1
e|--------------------------------------------------------|
B|---------------1-1-111-1-1/-1-1-111-1-1/----------------|
G|--2-2-222-2-2/-0-0-000-0-0/-2-2-222-2-2/-4-4-444-4-4----| X2
D|--3-3-333-3-3/-2-2-222-2-2/-2-2-222-2-2/-5-5-555-5-5----|
A|--1-1-111-1-1/-3-3-333-3-3/-0-0-000-0-0/-5-5-555-5-5----|
E|--1-1-111-1-1/-0-0-000-0-0/-0-0-000-0-0/-3-3-333-3-3----|


Verse Pt. 2 (0:48) Guitar 1
e|-----------------------------------------|
B|-----------1-1-1-1--1-1-1-1--------------|
G|--2-2-2-2--0-0-0-0--2-2-2-2--4-4-4-4-----| X4
D|--3-3-3-3--2-2-2-2--2-2-2-2--5-5-5-5-----|
A|--1-1-1-1--3-3-3-3--0-0-0-0--5-5-5-5-----|
E|--1-1-1-1--0-0-0-0--0-0-0-0--3-3-3-3-----|

Guitar 2 (1:04) (I know, I know, I know...) Comes in about the second time Guitar 1
intro chords
e|-----------------------------------------------------|
B|-----------------------------------------------------|
G|-13-13-13-13-13-13-13-13--16-16-16-16-16-16-16-16----|
D|-X--X--X--X--X--X--X--X---X--X--X--X--X--X--X--X-----|
A|-11-11-11-11-11-11-11-11--14-14-14-14-14-14-14-14----|
E|-----------------------------------------------------|
Continued...
e|-----------------------------------------------------|
B|-----------------------------------------------------|
G|-13-13-13-13-13-13-13-13--11-11-11-11-11-11-11-11----| X2
D|-X--X--X--X--X--X--X--X---X--X--X--X--X--X--X--X-----|
A|-11-11-11-11-11-11-11-11--9--9--9--9--9--9--9--9-----|
E|-----------------------------------------------------|


Chorus (1:20)
Guitar 1
e|-----------------------------------------|
B|-----------1-1-1-1--1-1-1-1--------------|
G|--2-2-2-2--0-0-0-0--2-2-2-2--4-4-4-4-----| X2
D|--3-3-3-3--2-2-2-2--2-2-2-2--5-5-5-5-----|
A|--1-1-1-1--3-3-3-3--0-0-0-0--5-5-5-5-----|
E|--1-1-1-1--0-0-0-0--0-0-0-0--3-3-3-3-----|

Guitar 2
e|--------------------------------------------------------|
B|---------------1-1-111-1-1/-1-1-111-1-1/----------------|
G|--2-2-222-2-2/-0-0-000-0-0/-2-2-222-2-2/-4-4-444-4-4----| X2
D|--3-3-333-3-3/-2-2-222-2-2/-2-2-222-2-2/-5-5-555-5-5----|
A|--1-1-111-1-1/-3-3-333-3-3/-0-0-000-0-0/-5-5-555-5-5----|
E|--1-1-111-1-1/-0-0-000-0-0/-0-0-000-0-0/-3-3-333-3-3----|

Pre-Verse (1:36)
Guitar 1
e|--------------------------------------------------------|
B|---------------1-1-111-1-1/-1-1-111-1-1/----------------|
G|--2-2-222-2-2/-0-0-000-0-0/-2-2-222-2-2/-4-4-444-4-4----| X2
D|--3-3-333-3-3/-2-2-222-2-2/-2-2-222-2-2/-5-5-555-5-5----|
A|--1-1-111-1-1/-3-3-333-3-3/-0-0-000-0-0/-5-5-555-5-5----|
E|--1-1-111-1-1/-0-0-000-0-0/-0-0-000-0-0/-3-3-333-3-3----|

Guitar 2
e-----------------12----------13/15-13-12-10-12/13-12-10-----|
B--10-13-10-13-10----10-13-10----------------------------13--|
G------------------------------------------------------------| X2
D------------------------------------------------------------|
A------------------------------------------------------------|
E------------------------------------------------------------|

Verse 2 (1:52)
Guitar 1
e|-----------------------------------------|
B|-----------1-1-1-1--1-1-1-1--------------|
G|--2-2-2-2--0-0-0-0--2-2-2-2--4-4-4-4-----| X4
D|--3-3-3-3--2-2-2-2--2-2-2-2--5-5-5-5-----|
A|--1-1-1-1--3-3-3-3--0-0-0-0--5-5-5-5-----|
E|--1-1-1-1--0-0-0-0--0-0-0-0--3-3-3-3-----|

Guitar 2 After the second set of chords again
e|-----------------------------------------------------|
B|-----------------------------------------------------|
G|-13-13-13-13-13-13-13-13--16-16-16-16-16-16-16-16----|
D|-X--X--X--X--X--X--X--X---X--X--X--X--X--X--X--X-----|
A|-11-11-11-11-11-11-11-11--14-14-14-14-14-14-14-14----|
E|-----------------------------------------------------|
Continued...
e|-----------------------------------------------------|
B|-----------------------------------------------------|
G|-13-13-13-13-13-13-13-13--11-11-11-11-11-11-11-11----| X2
D|-X--X--X--X--X--X--X--X---X--X--X--X--X--X--X--X-----|
A|-11-11-11-11-11-11-11-11--9--9--9--9--9--9--9--9-----|
E|-----------------------------------------------------|

Chorus 2 (2:24)
Guitar 1
e|-----------------------------------------|
B|-----------1-1-1-1--1-1-1-1--------------|
G|--2-2-2-2--0-0-0-0--2-2-2-2--4-4-4-4-----| X2
D|--3-3-3-3--2-2-2-2--2-2-2-2--5-5-5-5-----|
A|--1-1-1-1--3-3-3-3--0-0-0-0--5-5-5-5-----|
E|--1-1-1-1--0-0-0-0--0-0-0-0--3-3-3-3-----|

Guitar 2
e|--------------------------------------------------------|
B|---------------1-1-111-1-1/-1-1-111-1-1/----------------|
G|--2-2-222-2-2/-0-0-000-0-0/-2-2-222-2-2/-4-4-444-4-4----| X2
D|--3-3-333-3-3/-2-2-222-2-2/-2-2-222-2-2/-5-5-555-5-5----|
A|--1-1-111-1-1/-3-3-333-3-3/-0-0-000-0-0/-5-5-555-5-5----|
E|--1-1-111-1-1/-0-0-000-0-0/-0-0-000-0-0/-3-3-333-3-3----|

Bridge (2:40)
Guitar one only for the first chord set
e|--------------------------------------------------------|
B|---------------1-1-111-1-1/-1-1-111-1-1/----------------|
G|--2-2-222-2-2/-0-0-000-0-0/-2-2-222-2-2/-4-4-444-4-4----| X2
D|--3-3-333-3-3/-2-2-222-2-2/-2-2-222-2-2/-5-5-555-5-5----|
A|--1-1-111-1-1/-3-3-333-3-3/-0-0-000-0-0/-5-5-555-5-5----|
E|--1-1-111-1-1/-0-0-000-0-0/-0-0-000-0-0/-3-3-333-3-3----|

Guitar 2 plays second time (2:48)
e|--------------------------------------------------------|
B|---------------1-1-111-1-1/-1-1-111-1-1/----------------|
G|--2-2-222-2-2/-0-0-000-0-0/-2-2-222-2-2/-4-4-444-4-4----| X1
D|--3-3-333-3-3/-2-2-222-2-2/-2-2-222-2-2/-5-5-555-5-5----|
A|--1-1-111-1-1/-3-3-333-3-3/-0-0-000-0-0/-5-5-555-5-5----|
E|--1-1-111-1-1/-0-0-000-0-0/-0-0-000-0-0/-3-3-333-3-3----|

Outro (2:56)
Guitar 1
e|--------------------------------------------------------|
B|---------------1-1-111-1-1/-1-1-111-1-1/----------------|
G|--2-2-222-2-2/-0-0-000-0-0/-2-2-222-2-2/-4-4-444-4-4----| X4
D|--3-3-333-3-3/-2-2-222-2-2/-2-2-222-2-2/-5-5-555-5-5----|
A|--1-1-111-1-1/-3-3-333-3-3/-0-0-000-0-0/-5-5-555-5-5----|
E|--1-1-111-1-1/-0-0-000-0-0/-0-0-000-0-0/-3-3-333-3-3----|

Guitar 2
e-----------------12----------13/15-13-12-10-12/13-12-10-----|
B--10-13-10-13-10----10-13-10----------------------------13--|
G------------------------------------------------------------| X4
D------------------------------------------------------------|
A------------------------------------------------------------|
E------------------------------------------------------------|


| /  slide up
| \  slide down
| h  hammer-on
| p  pull-off
| ~  vibrato
| +  harmonic
| x  Mute note
============================================================================
Tap to rate this tab
 
# A B C D E F G H I J K L M N O P Q R S T U V W X Y Z