Song name
# A B C D E F G H I J K L M N O P Q R S T U V W X Y Z

Metro Station - Wish We Were Older tab

Help us improve GuitareTab! Take a short survey!
Wish We Were Older  Metro Station
Any corrections....Write your own you lazy ****!

Synth-Guitar Intro
|-------9---7---6---5---9---7--5-----|(x2)
|------9---7---6---5---9---7--5------|
|-----9---7---6---5------------------|
|----7-------------------------------|
|------------------------------------|
|------------------------------------|

|------------------------------------|
|------------------------------------|
|------------------------------------|
|------------------------------------|
|----7----9----11---9----------------|
|----5----7----9----7----------------|

Verse/Bridge
|------------------------------------|
|------------------------------------|
|------------------------------------|
|------------------------------------|
|----7---5---3---2-------------------|
|----5---3---1---0-------------------|


Chorus
|------------------------------------|
|------------------------------------|
|------------------------------------|
|------------------------------------|
|----7----9----11---9----------------|
|----5----7----9----7----------------|

Related for Wish We Were Older tab