Song name
# A B C D E F G H I J K L M N O P Q R S T U V W X Y Z

Metro Station - True To Me tab

True To Me  Metro Station
Intro/Verse
|----------------------------------|
|----------------------------------|
|----------------------------------|
|----------------------------------|
|---7-77-7-5-55-5-3-33-3-3-33-3----|
|---5-55-5-3-33-3-1-11-1-1-11-1----|
Pm    ..     ..     ..     ..

Pre-Chorus
|----------------------------------|
|----------------------------------|
|----------------------------------|
|----------------------------------|
|---7~~--9~~--11~~-----------------|
|---5~~--7~~--9~~------------------|

Chorus
|----------------------------------|
|----------------------------------|
|----------------------------------|
|----------------------------------|
|---7----5----7----5---------------|
|---5----3----5----3---------------|
Tap to rate this tab
# A B C D E F G H I J K L M N O P Q R S T U V W X Y Z