Guitaretab - guitar tabs
Song name
# A B C D E F G H I J K L M N O P Q R S T U V W X Y Z

Metro Station - Tell Me What To Do Acoustic tab

Artist: Metro Station
Song: Tell Me What To Do
Tabbed by: Rowell

Tuning: Standard


Legend : 

 x  : play muted string
( ) : optional
 h  : hammer-on
 p  : pull-of
 

If you need help, or just want to see how this tab is played,
Watch this video : http://www.youtube.com/watch?v=7clkc3UxyC8




Intro

You can play it as an octave, but you donít really have to.
If youíre having trouble with the rhythm, or when to play the muted strings, just 
Think about it as filling in the gaps between the notes with the muted string hits.

e|---------------------------------------------------------------------------|
B|---------------------------------------------------------------------------|
G|-(9)-----------------------------------------------------------------------| Repeat as necessary
D|---------------------------------------------------------------------------|
A|--7xx7xx------7xx7-7xx-----------------------------------------------------|
E|---------9p7x----------7h9-7h9---------------------------------------------|

Verse

Play each note to the same rhythm like the intro.
Each part represents a 4/4 bar. Itís pretty easy to figure it out.
If youíre having trouble, refer to the video.

!  = you play this note once at the very end before you move on to the next note
[ Tab from: http://www.guitaretab.com/m/metro-station/115477.html ]
e|-----|-----------|--------------|---------------------------------------------------|
B|-----|-----------|--------------|---------------------------------------------------|
G|-----|-----------|--------------|---------------------------------------------------|
D|-----|-----------|--------------|---------------------------------------------------| (2x)
A|--7--|--4-----7!-|--------------|---7xx7xx------7xx7-7xx ---------------------------|
E|-----|-----------|---5--7ó7h9p7 |-----------9p7x----------7h9-7h9-------------------|


Chorus

    Girl... oh yeah, and tell me what to do girl
e|---------------------------------------------------------------------------|
B|---------------------------------------------------------------------------|
G|---9-----------------------------------6-----------------------------------|
D|---9-----------------------------------6-----------------------------------|
A|---7-----------------------------------4-----------------------------------|
E|---------------------------------------------------------------------------|


    Iím so in love, whoa, Iím so in love with you, you, you, oh oh.
e|-------------------------------------------|------------------------------|
B|-------------------------------------------|------------------------------|
G|-------------------------------------------|------------------------------|
D|-------------7---------9-------------------|-play the intro riff here-----|
A|-------------7---------9-------------------|------------------------------|
E|-------------5---------7-------------------|------------------------------|


Verse 2 is the same as Verse 1
For the bridge, you play the chorus chords but you let them ring

Enjoy! 



Related for Tell Me What To Do Acoustic tab