Song name
# A B C D E F G H I J K L M N O P Q R S T U V W X Y Z

Metro Station - Shake It Acoustic tab

---------------------------------------------------------------------
	      Shake It Acoustic - Metro Station
---------------------------------------------------------------------

Tabbed by: Martin C (tin2u)
Email: tino_22_@hotmail.com

Tuning: Standard (EADGBe)

I have Heard a few versions of this song and I really liked the acoustic version so here 
the tab, it is my first tab so be gentle let me know what you think. Any comments on 
tab would be welcome.


[INTRO]

Let's Drop!!!

e|----------------------------------|
B|----------------------------------|
G|----------------------------------|  (X2)
D|-7-7--9--1212-555--1010-----------|
A|-7-7--9--1212-555--1010-----------|
E|-5-5--7--1010-333--1212-----------|

[Verse]

I'll take you home if you don't leave me at the font door


e|-xxxxxxx---xxxx---xxxxxx---xxxxx---------------|
B|-xxxxxxx---xxxx---xxxxxx---xxxxx---------------|
G|-xxxxxxx---xxxx---xxxxxx---xxxxx---------------|  (X4)
D|-7777777---9999---121212---55555---------------|
A|-7777777---9999---121212---55555---77-7-99--5--|
E|-5555555---7777---101010---33333---------------|

[Chorus]

Well she does like this

(you can play G,B and e strings open for more ring)

e|-----------------------------------------------|
B|-----------------------------------------------|
G|-----------------------------------------------|  (X2)
D|-7777777--/9999-/-121212-/-555555555-----------|
A|-7777777--/9999-/-121212-/-555555555-----------|
E|-5555555--/7777-/-101010-/-333333333-----------|


e|----------------------------------|
B|----------------------------------|
G|----------------------------------|  (X2)
D|-7-7--9--1212-555--1010-----------|
A|-7-7--9--1212-555--1010-----------|
E|-5-5--7--1010-333--1212-----------|


[Verse] -- x1

[Chorus] -- x1


[Bridge]

I saw you dancing and I couldnt get you off my mind

(Single Strums)

e|----------------------------------|
B|----------------------------------|
G|----------------------------------|  (X2)
D|-7-----9-----5-----7--------------|
A|-7-----9-----5-----7--------------|
E|-5-----7-----3-----5--------------|

(you can play G,B and e strings open for more ring)

e|-----------------------------------------------|
B|-----------------------------------------------|
G|-----------------------------------------------|  (X2)
D|-7777777--/9999-/-121212-/-555555555-----------|
A|-7777777--/9999-/-121212-/-555555555-----------|
E|-5555555--/7777-/-101010-/-333333333-----------|


e|----------------------------------|
B|----------------------------------|
G|----------------------------------|  (X2)
D|-7-7--9--1212-555--1010-----------|
A|-7-7--9--1212-555--1010-----------|
E|-5-5--7--1010-333--1212-----------|


Hope you enjoy feel free to comment
Tap to rate this tab
 
# A B C D E F G H I J K L M N O P Q R S T U V W X Y Z