Song name
# A B C D E F G H I J K L M N O P Q R S T U V W X Y Z

Metro Station - True To Me tab

Intro/Verse
|---------------------------------------------|
|---------------------------------------------|
|---------------------------------------------|
|---7-77-7------------------------------------|
|---5-55-5--7-77-7--5-55-5-5-55-5-------------|
|-----------5-55-5--3-33-3-3-33-3---------|*3-|

Pre-Chorus
|----------------------------------|
|----------------------------------|
|----------------------------------|
|----------------------------------|
|---7~~--9~~--11~~-----------------|
|---5~~--7~~--9~~------------------|*2

Chorus
|------------------------------------------|
|------------------------------------------|
|------------------------------------------|
|------------------------------------------|
|---77777777--55555555--99999999--77777777-|
|---55555555--33333333--77777777--55555555-|

-------------------------------------------|
-------------------------------------------|
-------------------------------------------|
-------------------------------------------|
----77777777--55555555--99999999--55555555-|
----55555555--33333333--77777777--33333333-|

-------------------------------------------|
-------------------------------------------|
-------------------------------------------|
-------------------------------------------|
----77777777--55555555--99999999--77777777-|
----55555555--33333333--77777777--55555555-|


Intro/Verse
|---------------------------------------------|
|---------------------------------------------|
|---------------------------------------------|
|---7-77-7------------------------------------|
|---5-55-5--7-77-7--5-55-5-5-55-5-------------|
|-----------5-55-5--3-33-3-3-33-3---------|*3-|


Pre-Chorus
|----------------------------------|
|----------------------------------|
|----------------------------------|
|----------------------------------|
|---7~~--9~~--11~~-----------------|
|---5~~--7~~--9~~------------------|*2

Chorus
|------------------------------------------|
|------------------------------------------|
|------------------------------------------|
|------------------------------------------|
|---77777777--55555555--99999999--77777777-|
|---55555555--33333333--77777777--55555555-|

-------------------------------------------|
-------------------------------------------|
-------------------------------------------|
-------------------------------------------|
----77777777--55555555--99999999--55555555-|
----55555555--33333333--77777777--33333333-|

-------------------------------------------|
-------------------------------------------|
-------------------------------------------|
-------------------------------------------|
----77777777--55555555--99999999--77777777-|
----55555555--33333333--77777777--55555555-|

bridge
|---------------------------------------------|
|---------------------------------------------|
|---------------------------------------------|
|---7-77-7------------------------------------|
|---5-55-5--7-77-7--5-55-5-5-55-5-------------|
|-----------5-55-5--3-33-3-3-33-3---------|*3-| on the third time miss out the 5 and 3s

Chorus
|------------------------------------------|
|------------------------------------------|
|------------------------------------------|
|------------------------------------------|
|---77777777--55555555--99999999--77777777-|
|---55555555--33333333--77777777--55555555-|

-------------------------------------------|
-------------------------------------------|
-------------------------------------------|
-------------------------------------------|
----77777777--55555555--99999999--55555555-|
----55555555--33333333--77777777--33333333-|

-------------------------------------------|
-------------------------------------------|
-------------------------------------------|
-------------------------------------------|
----77777777--55555555--99999999--77777777-|
----55555555--33333333--77777777--55555555-|

fade out
Tap to rate this tab
# A B C D E F G H I J K L M N O P Q R S T U V W X Y Z