Song name
# A B C D E F G H I J K L M N O P Q R S T U V W X Y Z

Metro Station - Goodnight Goodbye tab

Highlighted       Show chord diagrams
e---------------------------------------------------------------------e
B---------------------------------------------------------------------B
G------5---5---5---5---6---6---6---6---5---5---5---5---3---3----------G  x2
D---------------------------------------------------------------------D
A--------------------5---5---5---5---3---3---3---3---2---2------------A
E----5---5---5---5--------------------------------------------0-------E
(This has been no walk in the park i feel like we have fallen apart
Open up your eyes girl and see how wonderful this love could be) 


[Chorus:]
F       E
Hold on tight
       Am  
It’s a roller coaster ride we’re on so
F       E
Say goodbye
         Am 
‘Cause I won’t be back again
Dm     C
Up and down
       G    Am 
You’re all around
    E
Say goodnight
And goodbye

(Same Than The Verse)
Lalala la la lalalala

e---------------------------------------------------------------------e
B---------------------------------------------------------------------B
G------5---5---5---5---6---6---6---6---5---5---5---5---3---3-3~ ------G  x2
D---------------------------------------------------------------------D
A--------------------5---5---5---5---3---3---3---3---2---2------------A
E----5---5---5---5----------------------------------------------------E

(You say you didn’t mean to break...)

[Chorus:]
F       E
Hold on tight
       Am  
It’s a roller coaster ride we’re on so
F       E
Say goodbye
         Am 
‘Cause I won’t be back again
Dm     C
Up and down
       G    Am 
You’re all around
    E
Say goodnight
And goodbye


e---------------------------------------------------------------------e
B---------------------------------------------------------------------B
G------5---5---5---5---6---6---6---6---5---5---5---5---3---3-3~ ------G  x2
D---------------------------------------------------------------------D
A--------------------5---5---5---5---3---3---3---3---2---2------------A
E----5---5---5---5----------------------------------------------------E
(Lalala la la lalalala...) 

[Bridge:]
     F         C
Well girl, I’m sorry for
G             Am
Disappointing you
         E
But I’m done
(Still E )
With being up and down and pushed around 

NO MORE.

[Chorus:]
F       E
Hold on tight
       Am  
It’s a roller coaster ride we’re on so
F       E
Say goodbye
         Am 
‘Cause I won’t be back again
Dm     C
Up and down
       G    Am 
You’re all around
    E
Say goodnight
And goodbye

[Chorus:]
F       E
Hold on tight
       Am  
It’s a roller coaster ride we’re on so
F       E
Say goodbye
         Am 
‘Cause I won’t be back again
Dm     C
Up and down
       G    Am 
You’re all around
    E
Say goodnight
And goodbye

End With  Am 

Enjoy! =)
Tap to rate this tab
 
# A B C D E F G H I J K L M N O P Q R S T U V W X Y Z