Song name
# A B C D E F G H I J K L M N O P Q R S T U V W X Y Z

Metro Station - Moving Along tab

Band: Metro Station
Song: Moving Along

Tabbed by: Zak Vesely

This is the song Moving Along by the Band Metro Station.  Metro Station is Mason Musso, 
Cyrus, Blake Healy, and Anthony Improgo.  Dudes, if you see this, PLEASE, come back and 
the Trocadero in Philly!!!!!

Standard Tuning (EADGBe)

Intro
e-------------------------------------------|
B-------------------------------------------|
G-------------------------------------------|
D--5~~~~~~~~--9~~~~~~~~~~~--7~~~~~~~~~~~~~--|
A--3~~~~~~~~--7~~~~~~~~~~~--5~~~~~~~~~~~~~--|
E-------------------------------------------|

fill
e--------------------------------------------------------------------|
B----5-------5-------5-------5-------5-------5-----------------------|
G--5---5-7-5---5-7-5---5-7-5---5-7-5---5-7-5---5-7--5-4---5-4-----4--|
D-------------------------------------------------------5-----5-5----|
A--------------------------------------------------------------------|
E--------------------------------------------------------------------|

Verse is same as Intro (minus the fill)

Chorus
e------------------------------------------|
B------------------------------------------|
G------------------------------------------|
D--7~~~~~~~~--5~~~~~~~~~~--9~~~~~~~~~~~~~--|
A--5~~~~~~~~--3~~~~~~~~~~--7~~~~~~~~~~~~~--|
E------------------------------------------|

chorus fill
e---------------------------| Play throughout chorus
B-----13-10----13-10----10--|
G--12-------12-------12-----|
D---------------------------|
A---------------------------|
E---------------------------|


I don't know if the chorus fill is right, but it's how I play it and it sounds pretty 
cool, lol. Enjoy!!!
Tap to rate this tab
# A B C D E F G H I J K L M N O P Q R S T U V W X Y Z