Guitaretab - guitar tabs
Song name
# A B C D E F G H I J K L M N O P Q R S T U V W X Y Z

Metrokueen - Metro Queen tab

The first solo of the song after "Ladies and Gentlemen... Next Stop... metrokueen"


E|----------------------------|
B|----------------------------|
G|--7b--7---------------------|
D|----------5b---5------------|
A|----------------------------|
E|----------------------------|
[ Tab from: http://www.guitaretab.com/m/metrokueen/112165.html ]
E|------------------------------------------||
B|------15----------------------------------||
G|--14b----14r--p-12-~-------14p12----------||
D|---------------------------------14~------||
A|------------------------------------------||
E|------------------------------------------||

And on to the next verse..

Hope you enjoyed it!

==================================================

Stay updated with the metrokueen news, only at:

www.myspace.com/metrokueen

Copyright  2008 Billy Lee. All Rights Reserved.
Related for Metro Queen tab