Song name
# A B C D E F G H I J K L M N O P Q R S T U V W X Y Z

Metronomy - You Could Easily Have Me tab

I do not play guitar and worked this out through my keyboard. Therefore if you find an
method which is closer to how Metronomy play it than please email me with it and I will
adjustments as appropriate. I also know the notes for the synthesized parts to the song 
email me at danielnicholls@live.com if you want those!
Cheers, Dan.

Main Riff
e|-----------------------------|
B|-----------------------5-----|
G|-5𧛲𧛱𧛲𧛱𧛲𧈇-5-|
D|-5𧛲𧛱𧛲𧛱𧛲𦠯-5-|
A|-3𦴘𦴗𦴘𦴗𦴘---5-3-|
E|-----------------------------|
Below are 11s not 1s
e|--------------------------------------------------|
B|-------------------------9--9--9--5---------------|
G|-11-11-11-11-8--8--8--8--9--9--9--5-7--5----------|
D|-11-11-11-11-8--8--8--8--7--7--7--3-7--5----------|
A|-9--9--9--9--6--6--6--6-------------5--3----------|
E|--------------------------------------------------|

Guitar solo(0:44-0:57)

e|-44441111----8--6---355555555555---8---6---3-|
B|---------3333--------------------------------|
G|---------------------------------------------|
D|---------------------------------------------|
A|---------------------------------------------|
E|---------------------------------------------|
Tap to rate this tab
 
# A B C D E F G H I J K L M N O P Q R S T U V W X Y Z