Song name
# A B C D E F G H I J K L M N O P Q R S T U V W X Y Z

Metronomy - Nights Out tab

-------------------------------------------------------------------------------
			     NIGHTS OUT - Metronomy
-------------------------------------------------------------------------------
Tabbed by: Emmett C
Email: emmettcruddas@hotmail.co.uk

Tuning:Standard

This is how to play the guitar part to the opening track of the album 'Nights Out'

e|---------------------------0-------2---------------------------------------|
B|-------------------------------------2--------3-2-5-2----------------------|
G|-----1-2-----4-2-1---------------------------------------------------------|
D|-4-4---------------2-------------------------------------------------------|
A|---------------------------------------------------------------------------|
E|---------------------------------------------------------------------------|


This riff comes in at 0:47 and then repeats throughout the song.
Tap to rate this tab
# A B C D E F G H I J K L M N O P Q R S T U V W X Y Z