Song name
# A B C D E F G H I J K L M N O P Q R S T U V W X Y Z

Metronomy - The Look tab

-----------------------------------------------------------------------------
			     The Look (synth solo) - Metronomy
-----------------------------------------------------------------------------

Tabbed by: FlightySalad

Tuning: Standard
 
I haven't bothered too much with timing, but its there.

e|--------------------------------------------------------------------------|
B|--------------------------------------------------------------------------|
G|-10-9-----------10-9----10/12--14-----10-9--------------------------------|
D|------10-------------10--------------------10-------10-9----10/12--10-----|
A|---------12-----------------------------------12---------12---------------|
E|--------------------------------------------------------------------------|

e|-13-12----------13-12----13/15--17----13-12-------------------------------|
B|-------13-------------13--------------------13------13-12----13/15--13----|
G|----------14-----------------------------------14---------14--------------|
D|--------------------------------------------------------------------------|
A|--------------------------------------------------------------------------|
E|--------------------------------------------------------------------------|

e|-----------13/15--13------------------------------------------------------|
B|-15/17--15----------------------------------------------------------------|
G|--------------------------------------------------------------------------|
D|--------------------------------------------------------------------------|
A|--------------------------------------------------------------------------|
E|--------------------------------------------------------------------------|

Repeat, and feel cool.
Tap to rate this tab
# A B C D E F G H I J K L M N O P Q R S T U V W X Y Z