Song name
# A B C D E F G H I J K L M N O P Q R S T U V W X Y Z

Metronomy - On The Motorway tab

-----------------------------------------------------------------------------
                             On The Motorway - Metronomy
-----------------------------------------------------------------------------

Tabbed by: Narrateur

Cool riff, check song for timming ;)
My first tab, hope you'll like it !

                                Tuning: Standard
                         (r) = release the string a bit

e|--------------------------------------------------------------------------|
B|--------------------------------------------------------------------------|
G|--------------------------------------------------------------------------|
D|-------4------------------------------------------------------------------|
A|-2-2-2---5-5-5------------------------------------------------------------|
E|----------------3-3-3-3-(r)-3-3--5-7-7-7--2-2-2--3-3-3-3-(r)-3-3----------|

e|--------------------------------------------------------------------------|
B|--------------------------------------------------------------------------|
G|--------------------------------------------------------------------------|
D|-------4------------------------------------------------------------------|
A|-2-2-2---5-5-5---------------------5-5-5----------------------------------|
E|----------------3-3-3-3-(r)-3-3--5--------2-2-2--3-3-3-3-(r)-3-3----------|

Then, loop !

This is for the main riff (can be played on bass).
The kind of "solo/lyrics" played after (since there is no lyrics during the song) is a 
mix of keyboard and guitar with weird but cool effects.
Can't tab it... too much complicated.

Enjoy !
Tap to rate this tab
# A B C D E F G H I J K L M N O P Q R S T U V W X Y Z