Song name
# A B C D E F G H I J K L M N O P Q R S T U V W X Y Z

Metronomy - The Most Immaculate Haircut tab

        
Metronomy - The Most Immaculate Haircut 

INTRO

        8x
E--0-------------|
B----1-----------|
G------2---------|
D----------------|
A----------------|
E----------------|

He's got...


   2x         2x       4x       2x        2x       4x
E--0---------1--------0---------5--------5-------0------|
B----1---------1--------1---------6--------5-------1----|
G------2---------2--------0---------7--------5-------0--|  repeat it
D-------------------------------------------------------|
A-------------------------------------------------------|
E-------------------------------------------------------|

Bridge

        4x
E--3-------------|
B----3-----------|
G------4---------|
D----------------|
A----------------|
E----------------|

Pre-Chorus

I get this feeling...

     2x       1x       1x        2x       2x
E--5---------5--------3---------0--------3------|
B----6---------5--------3---------1--------3----|
G------7---------5--------4---------0--------4--|  2x
D-----------------------------------------------|
A-----------------------------------------------|
E-----------------------------------------------|

Chorus

Don't have a baby..

     2x       2x       2x      1x          1x
E--5---------5--------3---------0--------3------|
B----6---------5--------3---------1--------3----|
G------7---------5--------4---------0--------4--|  2x
D-----------------------------------------------|
A-----------------------------------------------|
E-----------------------------------------------|

CHORDS

Am              F                      C
He's got the most immaculate haircut
Dm
but with the right dye and shampoo
Am                      C
maybe I could too
Am                 F                           C
and he's got the most desirable friendship group
Dm                              Am                                    C
but boy when you got that hairdo, they're not gonna call you
Am          F                   C
now we got to get together and make some amends
Dm                                Am                       C
I see the girls falling for you, oh she must adore you woah

G

Dm                      Am       G            C
I get this feeling in my bones sometimes its like my legs
            G
might fall away
Dm                          Am         G         C
a shooting pain runs down my left hand side and I
           G
I think of you, oh hush now

Dm                 Am
dont have a baby look at what you gave me
G              C       G
you can always grow you know
oh hush now

Dm                  Am 
dont have a baby look at what you gave me
G               C         G
we can always grow together



-----------------------------------------------------------
That's my first attempt. Take it easy on me. :)
Tap to rate this tab
# A B C D E F G H I J K L M N O P Q R S T U V W X Y Z